PrimaNota.ru - самый крупный в мире бесплатный архив песенных текстов, аккордов, табулатур и нот


Acda En De Munnik - Groeten Uit Maaiveld - аккорды и текст, таба, видео

Регистрация Запомнить меня
Войти через:  Facebook Google Twitter Vk Yandex Mail.ru

Acda En De Munnik - Groeten Uit Maaiveld - аккорды и текст, таба, видео

Печатать
Просмотров: 149
Groeten Uit Maaiveld
Acda En De Munnik
Lekker vernieuwd en toch typisch A&dM! Wat wil je nog meer?
Nog 1 tip om het beter te laten klinken: Overal waar een E
staat moet je een Em spelen en de E maken door daarna je 
wijsvinger toch op de 1e positie van de G-snaar te zetten, dus zoiets als:
e-0---
B-0---
G-0h1-
D-2---
A-2---
E-0---


Em      022000
A       X02220
D       XX0232
C       X32010
G       320003
E       022100
Bm      X24432
A7sus4  x02230
Em7     020033
Cadd9   x32033
G    320033



Intro:
e-----0------0-------0------0--------0----0--------
B-0h3---3------3-0h3---3------3---4/5---3---2------
G----------4--------------4------------------------
D---------------------------------4/5--------------
A--------------------------------------------------
E-0--------------0---------------------------------

e--------------------0--------0---------------------
B-----0------0----0----2--0-------2----3-5----------
G-------0------0--0----2----0-------2--4-6----------
D-0h2-----2-----------------------------------------
A----------------------0--------0----0-0-0----------
E-----------------0-------0-------------------------


Em       A
He grote popster

Hoe is het nou?
G          A     G
Las dat je af en toe
            A         Em
Niet alleen denkt aan jou

Mooi verhaal weer
A
In zo'n prachtig blad
G        A       G     
Over hoe jij het hier
             A    Bm
Bij ons ooit hebt gehad
                             E    
En hoe je dacht ik moet hier weg
                             G
En hoe wij jou tegen hielden zeg!
       A
Alsnog excuus daarvoor
Em
Ik kan je zeggen
A
Namens de buurt
G             A     G
Het heeft wat ons betreft
            A
Ook iets te lang geduurd
Em            A
Las ik dat de inspiratie
G            A            G
Voor je allereerste album kwam
             A             Bm
Door het overlijden van je mam?
                            E
Maar ik kan je zeggen beste vriend
                          G
Dat had je moeder niet verdiend
           A
Tenminste, da's wat ze gisteren zei



D       A7sus4 
Hier in prachtig Maaiveld
Em7         Cadd9        G
Groeten uit prachtig Maaiveld
D           A7sus4
Waar men de dagen aftelt
Em7               Cadd9 G   A
Voor hen die naar boven zijn gegaan



Em    
He grote popster
A
De hele klas
G        A         G
Het hele dorp wist niet
           A     Em
Dat jij verlegen was

Arrogant ja
A
Dat dan weer wel
G             A         G
Maar dat komt vast niet uit
         A       
Zo in je popster-spel
Bm                             E
(En) je laatste album, laatste lied
                       G
Over hoe jij mij achterliet
             A
Ik dacht het niet

Ik heb jou laten gaan

D        A
Hier uit prachtig Maaiveld
Em          C        G
Groeten uit prachtig Maaiveld
D           A
Waar men de dagen aftelt
Em                C     G    A
Voor hen die naar boven zijn gegaan

D       A
Hier in prachtig Maaiveld
Em          C       G
Groeten uit prachtig Maaiveld
D           a
Waar men de dagen aftelt
Em               C      G
Voor hen die naar boven zijn gegaan
D A Em 
            C           G
Groeten uit prachtig Maaiveld
D           A
Waar men je welkomsttaart bestelt
Em         C        G
Als je pas net bent weggegaan

D A Em
            C        G
Groeten uit prachtig Maaiveld
            C        G
Groeten uit prachtig Maaiveld


repeat to fade out:
e-----0------0-------0------0--------0----0-------------------------
B-0^3---3------3-0^3---3------3---4/5---3---2-----------0------0----
G----------4--------------4-------------------------------0------0--
D---------------------------------4/5---------------0^2-----2-------
A-------------------------------------------------------------------
E-0--------------0--------------------------------------------------

Добавлено: 15.07.2015
Другие материалы по этой песне:
  • Аккорды и текст

Страница создана 28.04.2012
http://primanota.ru/acda-en-de-munnik/groeten-uit-maaiveld-chords.htm
Привет, Гость.
Предлагаем пройти революционный курс по гитаре.
Подарок от PrimaNota.Ru, забирай!