PrimaNota.ru - самый крупный в мире бесплатный архив песенных текстов, аккордов, табулатур и нот


The Accüsed - Bethany Home A Place To Die - таба, видео

Регистрация Запомнить меня
Войти через:  Facebook Google Twitter Vk Yandex Mail.ru

The Accüsed - Bethany Home A Place To Die - таба, видео

Печатать
Просмотров: 109
The Accüsed - Bethany Home (A Place to Die)
Transcribed by Steve Pordon

Notes:
Tuning: EADGBe
"e" below tab represent eight-note timing marks
p.h. = pinch harmonic
p.m. = palm mute
() around note = held note, or note not picked
b(#) = bend to indicated fret
\ = slide down (or trem bar when marked)
/ = slide up (or trem bar when marked)


Free time:
|-----------------|-----------------|-----------------|-----------------|
|-----------------|-----------------|-----------------|-----------------|
|-----------------|-----------------|-----------------|-----------------|
|-----drums-------|-8---4---5---2-2-|-----------------|-8---4---10--2-2-|
|-----------------|-8---4---5---2-2-|-----------------|-8---4---10--2-2-|
|-----------------|-6---2---3---0-0-|-----------------|-6---2---8---0-0-|



|-----------------|-----------------|-----------------|-----------------|
|-----------------|-----------------|-----------------|-----------------|
|-----------------|-----------------|-5-------4-------|-3---------------|
|-8---4---5---2-2-|-----------------|-5---5---4---4---|-3---3---2-------|
|-8---4---5---2-2-|-----------------|-3---5---2---4---|-1---3---2-------|
|-6---2---3---0-0-|-----------------|-----3-------2---|-----1---0-------|



|-----------------|-----------------|-----------------|
|-----------------|-----------------|-----------------|
|-----------------|-----------------|-----------------|
|-----------------|---------2-------|---------(2)-----|
|----/7---7-------|-(7)-\(2)2-------|---------(2)-----|
|-----------------|---------0-------|---------(0)-----|


|---------------------------------|---------------------------------|
|---------------------------------|---------------------------------|
|*--------------------------------|---------------------------------|
|*2-------------------------------|---------------------------------|
|-2-------------------------------|-2-h-3---------------------------|
|-0-------0---0---0---0---0---0---|---------0---0---0---0---0---0---|
  e   e   e   e   e   e   e   e     e   e   e   e   e   e   e   e   
        p.m. ..................           p.m. ..................

|---------------------------------|---------------------------------|
|---------------------------------|---------------------------------|
|---------------------------------|--------------------------------*|
|---------------------------------|--------------------------------*| x10
|-4-h-5---------------------------|-6-h-7-----------4/5-----3-------|
|---------0---0---0---0---0---0---|---------0---0---2/3-----1-------|
  e   e   e   e   e   e   e   e     e   e   e   e   e   e   e   e   
        p.m. ..................           p.m. ..


|---------------------------------|---------------------------------|
|---------------------------------|---------------------------------|
|*--------------------------------|---------------------------------|
|*2-------------------------------|---------------------------------|
|-2-------------------------------|-2-----------2-----------1-------|
|-0-------0---0---0---0---0---0---|---------0-----------0-----------|
  e   e   e   e   e   e   e   e     e   e   e   e   e   e   e   e   
        p.m. ..................        p.m. .       .....


|---------------------------------|---------------------------------|
|---------------------------------|---------------------------------|
|---------------------------------|--------------------------------*|
|-2-------------------------------|-2p0h2p0h2p0h2p0h2p0h2p0h2p0-1--*| x6
|-2-------------------------------|---------------------------------|
|-0-------0---0---0---0---0---0---|---------------------------------|
  e   e   e   e   e   e   e   e     e   e   e   e   e   e   e   e   
        p.m. .................. 


|---------------------------------|---------------------------------|
|---------------------------------|---------------------------------|
|*--------------------------------|---------------------------------|
|*2-------------------------------|---------------------------------|
|-2-------------------------------|-7-p-6---------------------------|
|-0-------0---0---0---0---0---0---|---------0---0---0---0---0---0---|
  e   e   e   e   e   e   e   e     e   e   e   e   e   e   e   e   
        p.m. ..................           p.m. ..................


|---------------------------------|---------------------------------|
|---------------------------------|---------------------------------|
|---------------------------------|--------------------------------*|
|---------------------------------|--------------------------------*| x8
|-4-h-5---------------------------|-3-p-2-----------4/5-----3-------|
|---------0---0---0---0---0---0---|---------0---0---2/3-----1-------|
  e   e   e   e   e   e   e   e     e   e   e   e   e   e   e   e   
        p.m. ..................           p.m. ..


|---------------------------------|---------------------------------|
|---------------------------------|---------------------------------|
|---------------------------------|---------------------------------|
|-2-------------------------------|(2)------------------------------|
|-2-------------------------------|(2)------------------------------|
|-0-------------------------------|(0)------------------------------|
  e   e   e   e   e   e   e   e     e   e   e   e   e   e   e   e   


|---------------------------------|---------------------------------|
|---------------------------------|---------------------------------|
|---------------------------------|-----------------ps\---------(\)-|
|(2)------------------------------|(2)--------------ps\---------(\)-|
|(2)------------------------------|(2)--------------ps\---------(\)-|
|(0)------------------------------|(0)------------------------------|
  e   e   e   e   e   e   e   e     e   e   e   e   e   e   e   e   

Outro:
|---------------------------------|---------------------------------| Gtr. 1
|---------------------------------|---------------------------------|
|*--------------------------------|---------------------------------|
|*2-------------------------------|---------------------------------|
|-2-------------------------------|---------------------------------|
|-0---0-0-0-0-0-0-0-0-0-0-0-0-0-0-|-0-0-0-0-0-0-0-0-0-0-0-0-0-0-0-0-|
| e   e   e   e   e   e   e   e     e   e   e   e   e   e   e   e   |
|  p.m............................................................. |
|---------------------------------|---------------------------------| Gtr. 2
|---------------------------------|---------------------------------|
|*--------------------------------|---------------------------------|
|*9-\-----------------------------|---------------------------------|
|-7-\-----------------------------|---------------------------------|
|---------------------------------|---------------------------------|
 (play only on repeats)

|---------------------------------|---------------------------------| Gtr. 1
|---------------------------------|---------------------------------|
|---------------------------------|---------------------------------|
|-2---------------5---------------|-4---------------8---------------|
|-2---------------5---------------|-4---------------8---------------|
|-0---0-0-0-0-0-0-3---0-0-0-0-0-0-|-2---0-0-0-0-0-0-6---0-0-0-0-0-0-|
| e   e   e   e   e   e   e   e     e   e   e   e   e   e   e   e   |
|   p.m..........    ............       ...........     ........... |
|---------------------------------|---------------------------------| Gtr. 2
|---------------------------------|---------------------------------|
|---------------------------------|---------------------------------|
|-9-\-------------12\-------------|-11\-------------15\-------------|
|-7-\-------------10\-------------|-9-\-------------13\-------------|
|---------------------------------|---------------------------------|
  e   e   e   e   e   e   e   e     e   e   e   e   e   e   e   e   


|---------------------------------| Gtr. 1
|---------------------------------|
|--------------------------------*|
|-5---------------4--------------*| x8
|-5---------------4---------------|
|-3---0-0-0-0-0-0-2---0-0-0-0-0-0-|
| e   e   e   e   e   e   e   e   |
|  p.m...........     ........... |
|---------------------------------| Gtr. 2
|---------------------------------|
|--------------------------------*|
|-12\-------------11\------------*| x8
|-10\-------------9-\-------------|
|---------------------------------|
  e   e   e   e   e   e   e   e 

Solo (play each part at the start of each outro repeat)
|---------------------------------|---------------------------------|
|---------------------------------|-----------------p.h.------------|
|---p-----------------------------|-------------7---9----b(11)------|
|-129-9-9-9-9-9-9-7h9-9-9-9-9-9-9-|-7h9-9-9-9-9---------------------|
|---------------------------------|---------------------------------|
|---------------------------------|---------------------------------|
  e   e   e   e   e   e   e   e     e   e   e   e   e   e   e   e   


|---------------------------------|---------------------------------|
|---/-----------------------------|---------------------------------|
|-15171717171717171817181718171817|-201820182018201820b(22)---------|
|---------------------------------|---------------------------------|
|---------------------------------|---------------------------------|
|---------------------------------|---------------------------------|
  e   e   e   e   e   e   e   e     e   e   e   e   e   e   e   e   


|---------------------------------|---------------------------------|
|---------------------------------|---------------------------------|
|-19191818161618181616161619191818|1616191918181616-----------------|
|---------------------------------|-----------------18-16-18(18)\---|
|---------------------------------|---------------------------------|
|---------------------------------|---------------------------------|
  e   e   e   e   e   e   e   e     e   e   e   e   e   e   e   e   


|---------------------------------|---------------------------------|
|---------------------------------|---------------------------------|
|---------------------------------|---------------------------------|
|---------------------------------|---------------------------------|
|---------------------------------|---------------------------------|
|-0-------3-b(5)--3-------0-------|-0---3-b(4)------0-------0-------|
  e   e   e   e   e   e   e   e     e   e   e   e   e   e   e   e   


                tremelo bar dives:
|---------------------------------|---------------------------------|
|---------------------------------|---------------------------------|
|-harmonic------------------------|---------------------------------|
|<16>-----------\-------/---------|-----------\-------------/-------|
|---------------------------------|---------------------------------|
|---------------------------------|---------------------------------|
  e   e   e   e   e   e   e   e     e   e   e   e   e   e   e   e   


|---------------------------------|---------------------------------|
|---------------------------------|---------------------------------|
|---h---------------p-------------|---------------------------------|
|-14161616161616161614------------|-----------------14------16--\---|
|---------------------161616161616|-1416141614161416----------------|
|---------------------------------|---------------------------------|
  e   e   e   e   e   e   e   e     e   e   e   e   e   e   e   e   


|---------------------------------|---------------------------------|
|---------------------------------|---------------------------------|
|---------------------------------|---------------------trem bar----|
|-7h9-9-9-9-9-9-9-7h9-9-9-9-9-9-9-|-7h9-9-9-9-9-7---0------\--------|
|---------------------------------|---------------------------------|
|---------------------------------|---------------------------------|
  e   e   e   e   e   e   e   e     e   e   e   e   e   e   e   e   


|---------------------------------|---------------------------------| Gtr. 1
|---------------------------------|---------------------------------|
|---------------------------------|---------------------------------|
|-2---------------5---------------|-4---------------8---------------|
|-2---------------5---------------|-4---------------8---------------|
|-0---------------3---------------|-2---------------6---------------|
| e   e   e   e   e   e   e   e     e   e   e   e   e   e   e   e   |
|                                                                   |
|---------------------------------|---------------------------------| Gtr. 2
|---------------------------------|---------------------------------|
|---------------------------------|---------------------------------|
|-9-\-------------12\-------------|-11\-------------15\-------------|
|-7-\-------------10\-------------|-9-\-------------13\-------------|
|---------------------------------|---------------------------------|
  e   e   e   e   e   e   e   e     e   e   e   e   e   e   e   e   


|---------------------------------|---------------------------------| Gtr. 1
|---------------------------------|---------------------------------|
|---------------------------------|---------------------------------|
|-5---------------4---------------|-2-------------------------------|
|-5---------------4---------------|-2-------------------------------|
|-3---------------2---------------|-0-------------------------------|
| e   e   e   e   e   e   e   e     e   e   e   e   e   e   e   e   |
|                                                                   |
|---------------------------------|---------------------------------| Gtr. 2
|---------------------------------|---------------------------------|
|---------------------------------|---------------------------------|
|-12\-------------11\-------------|-9\------------------------------|
|-10\-------------9-\-------------|-7\------------------------------|
|---------------------------------|---------------------------------|
  e   e   e   e   e   e   e   e     e   e   e   e   e   e   e   e   
Добавлено: 17.12.2015
Другие материалы по этой песне:
  • Аккорды и текст

Страница создана 17.12.2015
http://primanota.ru/accused/bethany-home-a-place-to-die-chords.htm
Привет, Гость.
Предлагаем пройти революционный курс по гитаре.
Подарок от PrimaNota.Ru, забирай!