PrimaNota.ru - самый крупный в мире бесплатный архив песенных текстов, аккордов, табулатур и нот


Acceptance - In Too Far - текст песни, таба, видео

Регистрация Запомнить меня
Войти через:  Facebook Google Twitter Vk Yandex Mail.ru

Acceptance - In Too Far - текст песни, таба, видео

Печатать
Просмотров: 149
                        Acceptance - In Too Far
Tabbed by: TheTroy
Tuning: Standard

Look. I know mostly all of this
is wrong but when i play it it sounds right. so
if you guys have any corrections then please
leave them in a comment to this tab. thanx

Oh. if any of you have the lead guitar for
the verse and chorus then please leave
them in a comment

INTRO
e|-4-4-4-2-2-2-4-4-4-2-2-2-2-2-2-------------------------------------------|
B|-4-4-4-2-2-2-4-4-4-2-2-2-2-2-2---9---------9-----------------------------|
G|-----------------------------------6---------6---------------------------|
D|-------------------------------------9-8-6-----9-8-6---------------------|
A|-------------------------------------------------------------------------|
E|-------------------------------------------------------------------------|

e|-4-4-4-2-2-2-4-4-4-7-7-7-7-7-7-------------------------------------------|
B|-4-4-4-2-2-2-4-4-4-7-7-7-7-7-7-9---------9-------------------------------|
G|---------------------------------6---------6-----------------------------|
D|-----------------------------------9-8-6-----9-8-6-----------------------|
A|-------------------------------------------------------------------------|
E|-------------------------------------------------------------------------|

VERSE X4   (on 3rd and 4th time you un-palm mute)
e|-------------------------------------------------------------------------|
B|-------------------------------------------------------------------------|
G|-------------------------------------------------------------------------|
D|-6-6-6-6-6-6-6-6-6-6-6-6-6-6-6-6--4-4-4-4-4-4-4-4-2-2-2-2-2-2-2-2--------|
A|-6-6-6-6-6-6-6-6-6-6-6-6-4-6-6-6--4-4-4-4-4-4-4-4-2-2-2-2-2-2-2-2--------|
E|-4-4-4-4-4-4-4-4-4-4-4-4-4-4-4-4--2-2-2-2-2-2-2-2-0-0-0-0-0-0-0-0--------|
   * * * * * * * * * * * * * * * *  * * * * * * * * * * * * * * * *
little lead part right before chorus
e|---------------------4-4-4-6-6-6-6-7-7\----------------------------------|
B|-9---------9---------4-4-4-6-6-6-6-7-7\----------------------------------|
G|---6---------6-----------------------------------------------------------|
D|-----9-8-6-----9-8-6-----------------------------------------------------|
A|-------------------------------------------------------------------------|
E|-------------------------------------------------------------------------|

Chorus X4
e|-------------------------------------------------------------------------|
B|-------------------------------------------------------------------------|
G|-------------------------------------------------------------------------|
D|-6-6-6-6-6-6-6-6-6-6-6-6-6-6-6--4-4-4-4-4-4-4-4-2-2-2-2-2-2-2-2----------|
A|-6-6-6-6-6-6-6-6-6-6-6-4-6-6-6--4-4-4-4-4-4-4-4-2-2-2-2-2-2-2-2----------|
E|-4-4-4-4-4-4-4-4-4-4-4-4-4-4-4--2-2-2-2-2-2-2-2-0-0-0-0-0-0-0-0----------|

Repeat verse

Then do another chorus

ok. thats all i have figured out so far.if anyone knows all the parst im missing then 
them into a comment and i will fix it.
Добавлено: 15.06.2012
Другие материалы по этой песне:

Страница создана 08.04.2012
http://primanota.ru/acceptance/in-too-far-chords.htm
Привет, Гость.
Предлагаем пройти революционный курс по гитаре.
Подарок от PrimaNota.Ru, забирай!