PrimaNota.ru - самый крупный в мире бесплатный архив песенных текстов, аккордов, табулатур и нот


Accept - Pomp And Circumstance - бас-таба, видео

Регистрация Запомнить меня
Войти через:  Facebook Google Twitter Vk Yandex Mail.ru

Accept - Pomp And Circumstance - бас-таба, видео

Печатать
Просмотров: 249
                            Pomp And Circumstance                               

Transcribed by an unregistered user

                                                                          Accept
Bass



     W                   W                   W                 
G||-------------------|-------------------|-------------------|
D||-------------------|-------------------|-------------------|
A||-------------------|-------------------|-------------------|
E||-------------------|-------------------|-------------------|


  W                   W                   W                   W                 
-------------------|-------------------|-------------------|-------------------|
-------------------|-------------------|-------------------|-------------------|
-------------------|-------------------|-------------------|-------------------|
-------------------|-------------------|-------------------|-------------------|


  W                   W                   W                   W                 
-------------------|-------------------|-------------------|-------------------|
-------------------|-------------------|-------------------|-------------------|
-------------------|-------------------|-------------------|-------------------|
-------------------|-------------------|-------------------|-------------------|


  W                   W                   W                   W                 
-------------------|-------------------|-------------------|-------------------|
-------------------|-------------------|-------------------|-------------------|
-------------------|-------------------|-------------------|-------------------|
-------------------|-------------------|-------------------|-------------------|


  W                   W                   W                   W                 
-------------------|-------------------|-------------------|-------------------|
-------------------|-------------------|-------------------|-------------------|
-------------------|-------------------|-------------------|-------------------|
-------------------|-------------------|-------------------|-------------------|


  W                   H        H           H        H         
-------------------|--------------------|--------------------|
-------------------|--------------------|--------------------|
-------------------|-----------5--------|--------------------|
-------------------|--3-----------------|--0--------3--------|


  H        Q.     E     Q    Q    H           H        Q.     E   
---------------------|---------------------|---------------------|
---------------------|---------------------|---------------------|
--3------------------|------------5--------|---------------------|
-----------3------3--|--5----5-------------|--3--------5------5--|


  Q    E  S S H           H        Q.     E     Q    Q    E  E  E  E   
-----------------------|---------------------|------------------------|
-----------------------|---------------------|------------------------|
--5----L--5-0-2--------|------------------5--|--5----5----5--0--5-----|
-----------------------|--0--------5---------|---------------------0--|


  H        H           Q.     E  Q    E  E     Q.     E  Q.     E   
--------------------|-----------------------|----------------------|
--------------------|-----------------------|----------------------|
-----------5--------|-----------------------|--3------0------------|
--3-----------------|--0------0--3----5--0--|------------3------3--|


  Q.     E  H           H        Q.     E     H        Q    E  E   
---------------------|---------------------|----------------------|
---------------------|---------------------|----------------------|
---------5--5--------|---------------------|--5--------5----5--0--|
--5------------------|--3--------5------5--|----------------------|


  H        Q    E  E     H        E  E  E  E     H        Q    E  E   
----------------------|-----------------------|----------------------|
----------------------|-----------------------|----------------------|
--3--------3----------|-----------------2--0--|--3--------5----------|
----------------0--2--|--3--------0--3--------|----------------0--2--|


  E  E  E  E  Q    Q       H        Q.     E     Q    Q    E  E  E  E   
------------------------|---------------------|------------------------|
------------------------|---------------------|------------------------|
------------------------|--3--------5---------|------------------------|
--3--3--2--3--0----0----|------------------0--|--3----3----3--3--3--3--|


  Q.     E  Q.     E     Q    E  E  Q    E  E     Q.     E  Q.     E   
----------------------|------------------------|----------------------|
----------------------|------------------------|----------------------|
------------5---------|------------------------|--3------3------------|
--3------3---------0--|--0----L--0--3----5--3--|------------3------3--|


  Q    E  S  S H           Q.     E  Q.     E     E  E  E  E  Q.     E   
------------------------|----------------------|------------------------|
------------------------|----------------------|------------------------|
----------5h-7-5--------|----------------------|--5--L--0--0--2---------|
--5----5----------------|--3------3--5------5--|---------------------0--|


  Q.     E  Q.     S  S    H        E  E  E  E     H        H         
------------------------|-----------------------|--------------------|
------------------------|-----------------------|--------------------|
-------------------5h-7-|--5--------5--0--5-----|-----------5--------|
--0------0--5-----------|--------------------0--|--3-----------------|


  H        Q.     E     Q.     E  Q    E  E     Q.     E  H         
---------------------|-----------------------|---------------------|
---------------------|-----------------------|---------------------|
---------------------|--3------3-------------|---------0--5--------|
--0--------3------3--|------------3----0--3--|--5------------------|


  Q.     E  Q    E  E     H        Q    E  E     H        E  E  E  E   
-----------------------|----------------------|-----------------------|
-----------------------|----------------------|-----------------------|
-----------------------|--5--------5----5--0--|--3--------2--3--------|
--3------3--5----5--5--|----------------------|-----------------0--2--|


  E  E  E  E  E  E  E  E     H        H           E  E  E  E  Q    Q     
--------------------------|--------------------|------------------------|
--------------------------|--------------------|------------------------|
--------------------2--0--|--3--------5--------|-----5------------------|
--3--3--3--3--3--5--------|--------------------|--3-----2--3--0----0----|


  H        Q.     E     Q    Q    E  E  E  E     Q.     E  H         
---------------------|------------------------|---------------------|
---------------------|------------------------|---------------------|
--3--------5---------|---------------5--------|------------5--------|
------------------0--|--3----3----3-----3--2--|--3------3-----------|


  H        Q    E  E     Q.     E  Q.     E     Q.     S S Q.     E   
----------------------|----------------------|-----------------------|
----------------------|----------------------|-----------------------|
-------------------2--|--3------3------------|-----------0-5---------|
--0--------3----5-----|------------3------3--|--5------0----------3--|


  H        H           Q    E  E  H           Q.     E  H         
--------------------|----------------------|---------------------|
--------------------|----------------------|---------------------|
--------------------|--5----5--3--2--------|---------------------|
--3--------5--------|----------------------|--0------0--5--------|


  Q.     E  E  E  E  E     H        Q.     E     Q.     E  Q    E  E   
------------------------|---------------------|-----------------------|
------------------------|---------------------|-----------------------|
--5------5--5--5--5-----|-----------5---------|--------------------2--|
---------------------0--|--3---------------0--|--0------2--3----5-----|


  Q.     E  Q.     E     Q.     S S Q    E  E     H        H         
----------------------|------------------------|--------------------|
----------------------|------------------------|--------------------|
--3------2------------|---------5-7-5----------|--------------------|
------------3------3--|--5---------------0--2--|--3--------5--------|


  H        E  E  E  E     Q.     E  E  E  E  E     H        E  E  E  E   
-----------------------|------------------------|-----------------------|
-----------------------|------------------------|-----------------------|
--5--------5--5--5--0--|--3------3--5--5--------|-----------------2--0--|
-----------------------|------------------0--2--|--3--------3--5--------|


  H        H           E  E  E  E  Q    Q       H.            
--------------------|------------------------|---------------|
--------------------|------------------------|---------------|
--3--------5--------|-----5------------------|--3------------|
--------------------|--3-----3--2--0----0----|---------------|


  W                   W                   W                 
-------------------|-------------------|-------------------|
-------------------|-------------------|-------------------|
--5----------------|-------------------|-------------------|
-------------------|--3----------------|--L----------------|


  W                  
-------------------||
-------------------||
-------------------||
--L----------------||




Duration Legend
---------------
W - whole
H - half
Q - quarter
E - 8th
S - 16th
T - 32nd
X - 64th
. - note dotted
|-n-|  - n-tuplets


Tablature Legend
----------------
L - tied note
x - dead note
g - grace note
(n) - ghost note
> - accentuded note
NH - natural harmonic
AH - artificial harmonic
TH - tapped harmonic
SH - semi harmonic
PH - pitch harmonic
h - hammer on
p - pull off
b - bend
br - bendRelease
pb - preBend
pbr - preBendRelease
brb - bendReleaseBend
\n/ - tremolo bar dip
\n - tremolo bar dive
-/n - tremolo bar Release up
/n\ - tremolo bar inverted dip
/n - tremolo bar return
-\n - tremolo bar Release down
S - shift slide
s - legato slide
/ -  slide into from below or out of upwards
\ -  slide into from above or out of downwards
~ - vibrato
W - wide vibrato
tr - trill
TP - tremolo picking
T - tapping
S - slap
P - pop
< - fade in
^ - brush up
v - brush down
Добавлено: 24.02.2012
Другие материалы по этой песне:

Страница создана 24.02.2012
http://primanota.ru/accept/pomp-and-circumstance-chords.htm
Привет, Гость.
Предлагаем пройти революционный курс по гитаре.
Подарок от PrimaNota.Ru, забирай!