PrimaNota.ru - самый крупный в мире бесплатный архив песенных текстов, аккордов, табулатур и нот


Accept - Generation Clash - текст песни, таба, бас-таба, видео

Регистрация Запомнить меня
Войти через:  Facebook Google Twitter Vk Yandex Mail.ru

Accept - Generation Clash - текст песни, таба, бас-таба, видео

Печатать
Просмотров: 514
Уроки эстрадного вокала в Санкт-Петербурге
                                  Generation Clash                                   


                                                                               Accept

Intro: Play with your whammy bar


This is played right after the drums fully come in and before lyrics start
                                       
|------------9--9--|------|------------9--9--|------|---------------------15----|
|------------9--9--|------|------------9--9--|------|------------------14-------|
|---------x--------|------|---------x--------|------|---------------12----------|
|------------------|------|------------------|------|------------11-------------|
|------------------|------|------------------|------|---------10----------------|
|------------------|------|------------------|------|---------------------------|

Warnings around me
Coming on strong
Hear the desire
That young dudes are fools

But systems will berak down
The way they all do
A general burden
When ever we're through

-------------------|
-------------------|
--6----------------|
--6----------------|
--4----------------| Use your whammy here
-------------------|

Powers are freezing                  The way that they are      
-------|-----19b----------------------|-------|-------------------------|
-------|-----------------9------------|-------|--------5----7---5-------|
-------|-----------------------(12)---|-------|--------4----6---4-------|
-------|--------------x---------11----|-------|-----x-----x-------------|
-------|------------------------------|-------|-------------------------|
-------|------------------------------|-------|-------------------------|

They're fornicating                    With each others minds
-------|-----15b----19--19b---------|----------------------|---------------------|
-------|-----15b--------21b---------|----------------------|---------------------|
-------|----------------------------|----------------------|---------------------|
-------|----------------------------|----------------------|---------------------|
-------|----------------------------|------------------2b--|--(4)------4---------|
-------|----------------------------|----------------------|---------------------|

               
Pre Chorus:

|-----------------------|-----------------------|-------------------|------------------------|
|-----------------------|-----------------------|-------------------|------------------------|
|--2--------------------|--4--------------------|--2----------------|--4--4-----4--4---------|
|--2--------------------|--4--------------------|--2----------------|--4--4-----4--4---------|
|--0--------------2--2--|--2--------------0--0--|--0----------------|--2--2-----2--2---------|
|-----------------------|-----------------------|-------------------|------------------------|
|                       |                       |                   |                        |
|-----------------------|----------------2------|--0-----2-----4----|-4-4-4----4-4-4---------|
|--2------4------5------|--4------5-------------|-------------------|------------------------|
|-----------------------|-----------------------|-------------------|------------------------|
|-----------------------|-----------------------|-------------------|------------------------|
|-----------------------|-----------------------|-------------------|------------------------|
|-----------------------|-----------------------|-------------------|------------------------|


Chorus Riff:

|-------------------|--------------------|-------------------------|------------------------|
|-------------------|--------------------|-------------------------|------------------------|
|--6----------------|----------------L\--|-----6--x--x--6----x--x--|--x--6--x-----2----4----|
|--6----------------|----------------L\--|-----6--x--x--6----x--x--|--x--6--x-----2----4----|
|--4----------------|----------------L\--|--------x--x--4----x--x--|--x--4--x--0--0----2----|
|-------------------|--------------------|-------------------------|------------------------|
|                   |                    |                         |                        |
|-------------------|--------------------|-------------------------|------------------------|
|-------------------|--5-------7---------|-------------------------|--------------5----4----|
|--6----------------|--------------------|-----6--x--x--6----x--x--|--x--6--x--x------------|
|--6----------------|--------------------|-----6--x--x--6----x--x--|--x--6--x--x------------|
|--4----------------|--------------------|--------x--x--4----x--x--|--x--4--x--x------------|
|-------------------|--------------------|-------------------------|------------------------|


|-------------------|--------------------|-------------------------|------------------------|
|-------------------|--------------------|-------------------------|------------------------|
|--6----------------|----------------L\--|-----6--x--x--6----x--x--|--x--6--x-----2----4----|
|--6----------------|----------------L\--|-----6--x--x--6----x--x--|--x--6--x-----2----4----|
|--4----------------|----------------L\--|--------x--x--4----x--x--|--x--4--x--0--0----2----|
|-------------------|--------------------|-------------------------|------------------------|
|                   |                    |                         |                        |
|-------------------|--------------------|-------------------------|------------------------|
|-------------------|--5-------5---------|-------------------------|--------------5----4----|
|--6----------------|--------------------|-----6--x--x--6----x--x--|--x--6--x--x------------|
|--6----------------|--------------------|-----6--x--x--6----x--x--|--x--6--x--x------------|
|--4----------------|--------------------|--------x--x--4----x--x--|--x--4--x--x------------|
|-------------------|--------------------|-------------------------|------------------------|



         
-------------------------|----------------------------|------------------|------|
---------------------12--|--------------------12--9b--|-(11)----(10)-----|-9----|
------------------9------|----------------------------|------------------|------|
--------------11---------|--------------(11)----------|------------------|------|
-------------------------|----------------------------|------------------|------|
-------------------------|----------------------------|------------------|------|


Second verse riff:                                                                           Repeat x3

|---------------------------|----------------9--9--9--|---------------------------|--------------------|
|-----10--9-----7--9--------|--9--------9----9--9--9--|-----10--9-----7--9--------|--------------------|
|-----11--9-----8--9--------|--9--------9-------------|------9--9-----8--9-----2--|--------------------|
|---------------------------|-------------------------|-----11-----------------2--|--------------------|
|---------------------------|-------------------------|------------------------0--|--------------------|
|---------------------------|-------------------------|---------------------------|--------------------|
|                           |                         |                           |                    |
|---------------------------|-------------------------|---------------------------|--------------------|
|---------------------------|-------------------------|---------------------------|--------------------|
|---------------------------|--4--------6-------------|------------------------2--|----------4---------|
|------7--6-----4--6--------|--4--------6-------------|------7--6-----4--6-----2--|----------4---------|
|------9--7-----6--7--7-7---|-----4--4----------------|------4--4--4--6--7-----0--|-------0--2---------|
|------------9------------9-|-------------------------|---------------------------|--------------------|
             *        * * *       *  *                             *                      *
   

Pre-Chorus

Chorus (Repeat twice this time)





Solo:

         C#m                         A                                             C#m
------|---------------------|-----|--------------------|------------------------|-----------------|
------|--14b----------------|-----|-----------14p-(16)-|--14--------------------|-----------------|
--13--|---------------------|-----|--------------------|------------(13)--(11)--|---13------------|
------|---------------------|-----|--------------------|------------------------|-----------------|
------|---------------------|-----|--------------------|------------------------|-----------------|
------|---------------------|-----|--------------------|------------------------|-----------------|

        A                                            E°
-----|-----------------|--------------------------|---------------19b-(21)---|------------------|
-----|--------17b-(19)-|--14-------17---16---14---|--------16h-17------------|------------------|
-----|-----------------|--------------------------|--------------------------|------------------|
-----|-----------------|--------------------------|--------------------------|----------------x-|
-----|-----------------|--------------------------|--------------------------|--------------x---|
-----|-----------------|--------------------------|--------------------------|------------x-----|

  E°                                                    A
-----------------------------12-12--|-----------14b--|-----14b--14b----14b---|------14----12----------|
--------------------------9--10-11--|----------------|-----------------------|-----------------(14)---|
--------------8--9-----9------------|----------------|-----------------------|------------------------|
--11------11--------11--------------|----------------|-----------------------|------------------------|
------11----------------------------|----------------|-----------------------|------------------------|
------------------------------------|----------------|-----------------------|------------------------|

  C#m                            F#m                                            C#m
-----------------|------------|--17----17----17----17------|-----------------|------------|-----------------|
---16b-(17)-(16)-|------14-16-|--16b---16b---16b---16b-----|-----------------|------------|------x-x-x--x-x-|
-----------------|------------|----------------------------|-----9-----------|------------|------x-x-x--x-x-|
-----------------|------------|----------------------------|---------9h--11--|--11~-------|------x-x-x--x-x-|
-----------------|------------|----------------------------|-----------------|------------|-----------------|
-----------------|------------|----------------------------|-----------------|------------|-----------------|
             
  A                                        C#m
-------------|--------------------------|------------------------12---|---------------------|
-------------|-----9--11--11-----9------|--9----------------------8b--|------------------9--|
-------------|-----9--11--11b----9------|--9--------x--x--------------|--------11--8--9-----|
--2----------|----------------------11--|-----11----x--x--------------|---------------------|
-----4~------|--------------------------|-----------------------------|---------------------|
-------------|--------------------------|----------------9------------|---------------------|

  E°                                                      C#°
----------------9---12---15---|--18\-----16\-----------|--16-------------------|-------------12-----14---|
-------8---11---8---11---14---|--17\-----14\-----17-19-|--------------16b--14--|--14b--------15b----17b--|
--12---9----9-----------------|------------------------|-----18----------------|-------------------------|
--11--------------------------|------------------------|-----------------------|-------------------------|
------------------------------|------------------------|-----------------------|-------------------------|
------------------------------|------------------------|-----------------------|-------------------------|

  E°                                                        C#°
--16----16----16----16------18--|--19\-------19--19--21--|--23b-\-----------21b------|--24----------------|
--19b---19b---19b---19b---------|------------------------|---------------------------|--23----------------|
--------------------------------|------------------------|---------------------------|--------------------|
--------------------------------|------------------------|---------------------------|--------------------|
--------------------------------|------------------------|---------------------------|---------dip whammy-|
--------------------------------|------------------------|---------------------------|--------------------|



Pre-Chorus x2

Chorus until fade





Enjoy ;)                                                                                           Mate9989







Tablature Legend
----------------
* - palm mute
L - tied note
x - dead note
h - hammer on
p - pull off
b - bend
/ - slide from below
\ - slide from above
~ - vibrato
(n) - ghost note
Добавлено: 29.08.2014
Другие материалы по этой песне:

Страница создана 16.05.2012
http://primanota.ru/accept/generation-clash-chords.htm
Привет, Гость.
Предлагаем пройти революционный курс по гитаре.
Подарок от PrimaNota.Ru, забирай!