PrimaNota.ru - самый крупный в мире бесплатный архив песенных текстов, аккордов, табулатур и нот


Aca Seca Trio - Clavelito Blanco - таба, видео

Регистрация Запомнить меня
Войти через:  Facebook Google Twitter Vk Yandex Mail.ru

Aca Seca Trio - Clavelito Blanco - таба, видео

Печатать
Просмотров: 93
Ojo con la afinación!!
Al último compás le falta algo, pero según yo el resto de la intro está 100%
Esto es también lo que hace el teclado de Beeuwsaert
Saludos desde chile!!

Aca Seca Trío - Clavelito Blanco - Intro

     H        E  E  E  E   
E||-----------------------|
B||-----------------------|
G||-----------------------|
D||-----------------0--2--|
A||--------------3--------|
D||-----------------------|


  E  Q    E  E  Q    E   
------------------------|
------------------------|
----------2--0----------|
--3---------------------|
---------------------3--|
------------------------|


  E  E  Q.     E  E  E   
------------------------|
------------------------|
--------2------0--------|
--3--2------------3--2--|
------------------------|
------------------------|


  E  E  E  E  E  E  E  E   
--------------------------|
--------0-----------------|
--------------------2-----|
--0-----------------------|
--------------3-----------|
--------------------------|


  Q    Q    E  E  E  E   
------------------------|
---------------------0--|
--0------------0--2-----|
-------0----------3-----|
------------2-----------|
------------------------|


  E  E  E  E  E  E  E  E   
-----------0--------------|
--1--L--L-----3-----------|
-----------------------0--|
--2-----5-----4-----3-----|
--------------------------|
--------------------------|


  E  E  E  E  E  E  E  E   
--------0-----------------|
--1--0-----------3--1--0--|
--------------------------|
--2--------4--5-----------|
--------------------------|
--------------------------|


  E  E  E  E  E  E  E  E   
--------1-----------0-----|
--------------------------|
--2-----------0-----------|
--0-----------------------|
-----------2--3--------3--|
--------------------------|


  E  E  E  E  E  E  E  E   
--------------------------|
--------3-----2-----0--2--|
-----------------2--------|
--3-----------2-----------|
--5-----------------0-----|
--------------------------|


  E  E  E  E  E  E  E  E   
-----------1--0-----------|
--3-----------------------|
-----1--2--------0--1--2--|
--------------------------|
--------------------------|
--0-----3-----2-----1-----|


  E  E  E  E  E  E  E  E   
--------1--------0--------|
--3--1--------------3--1--|
--------------------------|
--------------------------|
--------------------------|
--0--------2--3-----4-----|


  E  E  E  E  E  E  E  E   
--------3-----------1-----|
--0-----------------------|
--------------2-----------|
--------------------------|
--------5-----4-----3-----|
--5-----------------------|


  E  E  E  E  E  E  E  E   
--------------0--------0--|
--3-----6--------1--3-----|
--------------------------|
--------------------------|
--2-----5-----3-----2--1--|
--------------------------|


  E  E  E  E  E  E  E  E   
--1--------5--3--------0--|
-----0--1--------1--3-----|
--------------------------|
--------------------------|
--0-----3-----2-----1-----|
--------------------------|


  E  E  E  E  E  E  E  E   
--1--0--5--------3--1--0--|
--------------------------|
--------------------------|
--------------------------|
--0--------2--3-----4-----|
--------------------------|


  E  E  E  E  E  E  E  E   
--------6-----------5-----|
--3-----------------------|
--------------5-----------|
--------2-----3-----4-----|
--5-----------------------|
--------------------------|


  E  E  E  E  Q    E   
--------3-----1----0--|
--3-------------------|
----------------------|
--5-------------------|
----------------------|
----------------------|
Добавлено: 15.05.2016
Другие материалы по этой песне:
  • Аккорды и текст

Страница создана 15.05.2016
http://primanota.ru/aca-seca-trio/clavelito-blanco-chords.htm
Привет, Гость.
Предлагаем пройти революционный курс по гитаре.
Подарок от PrimaNota.Ru, забирай!