PrimaNota.ru - самый крупный в мире бесплатный архив песенных текстов, аккордов, табулатур и нот


AC/DC - Wheels - текст песни, таба, видео

Регистрация Запомнить меня
Войти через:  Facebook Google Twitter Vk Yandex Mail.ru

AC/DC - Wheels - текст песни, таба, видео

Печатать
Просмотров: 284
AC/DC:  Wheels
Album:  Black Ice
Transcribed by:  Jeff Martin
Tuning:  Standard

INTRO
ANGUS
|-----------------------------:||
|-------------------3---------:||
|-----------2-------2---------:||
|-------2-2-0-2----2--------2-:||
|-3b3.5-0-0---0-0h3---3b3.5-0-:||
|-----------------------------:||X2
MALCOM
|-----------------------------:||
|-------------------3---------:||
|-------------------2---------:||
|------------------2--------2-:||
|---------------0h3---3b3.5-0-:||
|-----------------------------:||X2

VERSE:
ANGUS (ONLY)
|---2----2-----------2-:||
|-3-3-33-3---------3-3-:||
|-2-2-22-2---------2-2-:||
|----------0-----------:||
|-----------3-2-0------:||
|----------------3-----:||X2

ANGUS & MALCOM
|----------------------:||
|----------------------:||
|---2----2-----------2-:||
|-2-2-22-2---------2-2-:||
|-0-0-00-0-0-------0-0-:||
|-----------3-2-0-2----:||X2

|---2----2-----------2-:||
|-3-3-33-3---------3-3-:||
|-2-2-22-2---------2-2-:||
|----------0-----------:||
|-----------3-2-0------:||
|----------------3-----:||X2

ANGUS (Listen for variations within this chord)
|-12-12-12-12/-12-12-12-12/-12-12-12-12-12-12-12-12-|
|-12-12-12-12/-12-12-12-12/-12-12-12-12-12-12-12-12-|
|-13-13-13-13/-13-13-13-13/-13-13-13-13-13-13-13-13-|
|-14-14-14-14/-14-14-14-14/-14-14-14-14-14-14-14-14-|
|---------------------------------------------------|
|---------------------------------------------------|
MALCOM
|---------------------------------------------------|
|---------------------------------------------------|
|---------------------------------------------------|
|-9-9-9-9-9-9-9-9-9-9-9-9-9-9-9-9-9-9-9-9-9-9-9-9-9-|
|-7-7-7-7-7-7-7-7-7-7-7-7-7-7-7-7-7-7-7-7-7-7-7-7-7-|
|---------------------------------------------------|

CHORUS
ANGUS & MALCOM
       ^    ^
|-----------------------------:||
|-----------------------------:||
|-2-----5---7-----------------:||
|-2---5-5-7-7-9-99999-7-77777-:||
|-0-0-3---5---7-77777-5-55555-:||
|-----------------------------:||
*I know Angus is playing something diff in background, not worth tabbing IMO.

ANGUS (Both could play Malcom's part and this could be FILL)
|------10-10------10-:||
|------10-10------10-:||
|-12b14------12b14---:||
|--------------------:||
|--------------------:||
|--------------------:||X2
MALCOM
|--------------:||
|--------3-----:||
|--------2-----:||
|------2-----2-:||
|-0-3-(0)--3-0-:||
|--------------:||X2

VERSE 2 = VERSE 1

ANGUS FILL in Verse 2
|----------|
|-8b9b8b9/-|
|----------|
|----------|
|----------|
|----------|

CHORUS 2 = CHORUS 1

SOLO
|-----------------------------------:||
|-10-12-13-13-13-13-13-13-13-13-13/-:||
|-11-13-14--------------------------:||
|-----------------------------------:||
|-----------------------------------:||
|-----------------------------------:||X2

|-15b17-15b17-15b17-15b17-12------------------------------------|
|----------------------------15h17p15-----17--14----------------|
|------------------------------------14-14--14--14-17b18-17b18/-|
|---------------------------------------------------------------|
|---------------------------------------------------------------|
|---------------------------------------------------------------|

|-------------------------|-------------------------------------------|
|---15--13-15-15b17b15r13-|-------------------------------------------|
|-14--14------------------|-------------------------------------------|
|-***ARGGG***-------------|----------------------------14h17p14h17p14-|
|-------------------------|--------------15h17p15h17p15---------------|
|-------------------------|15h17p15h17p15-----------------------------|

|-------------------|-12-12-12-12-12-14-14-14-14-14-14-15-15-15-15-15-|
|----------------14-|-------------------------------------------------|
|----------14-17-14-|-------------------------------------------------|
|-14h17p14-14-17----|-------------------------------------------------|
|-------------------|-------------------------------------------------|
|-------------------|-------------------------------------------------|

|------------------20----20----20-20-20-20b22-22-22-22-22-|
|------17-17-17-17----17-17-17----------------------------|
|------17-17-17-17----17-17-------------------------------|
|-19b21---------------------------------------------------|
|---------------------------------------------------------|
|---------------------------------------------------------|
***For goodness sake, that's the best I could do... corrections plz!

*****Malcom plays the verse riffs behind the solo!

CHORUS 3 = CHORUS 1

So, what you need is in here... the solo is probably off (a lot???), but this will get 
through!  PEACE
Добавлено: 01.03.2012
Другие материалы по этой песне:

Страница создана 01.03.2012
http://primanota.ru/ac-dc/wheels-chords.htm
Привет, Гость.
Предлагаем пройти революционный курс по гитаре.
Подарок от PrimaNota.Ru, забирай!