PrimaNota.ru - самый крупный в мире бесплатный архив песенных текстов, аккордов, табулатур и нот


AC/DC - Sweet Candy - таба, бас-таба, видео

Регистрация Запомнить меня
Войти через:  Facebook Google Twitter Vk Yandex Mail.ru

AC/DC - Sweet Candy - таба, бас-таба, видео

Печатать
Просмотров: 146
-------------------------------------------------------------------------------
                             Sweet Candy - AC DC
-------------------------------------------------------------------------------

Tabbed by: Brands99

Tuning: Standard
x - Mute 
v - Vibrato 
\ - Slide Up

Intro/ Chorus
e|---------------------------------------------------------------------------|
B|--14v----------------------------------------------------------------------|
G|--14v-----------2-x--4---4-4--x--------------------------------------------|
D|-----------4--x-2-x--4---4-4--x-4------------------------------------------|
A|-----------4--x-0-x--2---2-2--x-4------------------------------------------|
E|-----------2--x-----------------2------------------------------------------|

Verse                                             on the 4th repetition  end on this
e|---------------------------------------------   |------------------------------|
B|---------------------------------------------   |------------------------------|
G|--------2-2----4--4-x------------------------   |----2-2-------4--4-x----------|
D|--4-4---2-2----4--4-x--4---------------------   |----2-2--4-4--4--4-x-4--------|
A|--4-4---0-0----2--2-x--4---------------------   |----0-0--4-4--2--2-x-4--------|
E|--2-2------------------2---------------------   |---------2-2---------2--------|

Verse 2
e|----------------------------------------------------------------|
B|----------------------------------------------------------------|
G|----------4-----------4----------4------------------------------|
D|---4-4-4--4----4-4-4--4---4-4-4--4---4\-------------------------|
A|---4-4-4--2----4-4-4--2---4-4-4--2---4\-------------------------|
E|---2-2-2-------2-2-2------2-2-2------2\-------------------------|

Verse 3 (Solo)                                   End the song on this
e|--------------------------------------------   |-----------------|
B|--------------------------------------------   |------------14v--|
G|--4-x--------2------------------------------   |--4-4-------14v--|
D|--4-x-4-4--4-2-4----------------------------   |--4-4-4----------|
A|--2-x-4-4--4-0-4----------------------------   |--2-2-4----------|
E|------2-2--2---2----------------------------   |------2----------|

Order:
Intro    x4
Verse    x4
Chorus   x4
Verse    x4
Chorus   x4 
Verse 2  x2
Verse 3  x4
Chorus   x4
Verse 3  x10

Rate and Comment 
Добавлено: 27.02.2016
Другие материалы по этой песне:

Страница создана 03.11.2015
http://primanota.ru/ac-dc/sweet-candy-chords.htm
Привет, Гость.
Предлагаем пройти революционный курс по гитаре.
Подарок от PrimaNota.Ru, забирай!