PrimaNota.ru - самый крупный в мире бесплатный архив песенных текстов, аккордов, табулатур и нот


AC/DC - Snowballed - аккорды и текст, таба, бас-таба, видео

Регистрация Запомнить меня
Войти через:  Facebook Google Twitter Vk Yandex Mail.ru

AC/DC - Snowballed - аккорды и текст, таба, бас-таба, видео

Печатать
Просмотров: 292
Snowballed
AC/DC
Intro:
E|-------------------|------------------------|-----------------------|
B|-------------------|------------------------|-----------------------|
G|-------------------|------------------------|-----------------------|
D|----------------7--|----7----------------7--|----7----------------7-|
A|----------------5--|----4----------------5--|----4----------------5-|
E|-------------------|-------0--0----0--0-----|-------0--0----0--0----|

E|------------------------|------------------------|
B|------------------------|------------------------|
G|------------------------|------------------------|
D|----7-------------------|----------------0-----7-|
A|----4----------------0--|-------0--1--2--------5-|
E|-------0--0----0--0-----|----3--------------0----|
you could see...
E|------------3----2----|---------------------2--|----------3----2-|
B|------------3----3----|---------------------3--|----------3----3-|
G|----9--9----0----2----|--2-------2-------2--2--|----------0----2-|
D|----9--9----0----0----|--2-------2-------2--0--|----------0----0-|
A|----7--7--------------|--0-------0-------0-----|-----------------|
E|------------3---------|-------3-------3--------|----------3------|
miles and miles...
E|---------------------2--|----------3----2-|
B|---------------------3--|----------3----3-|
G|--2-------2-------2--2--|----------0----2-|
D|--2-------2-------2--0--|----------0----0-|
A|--0-------0-------0-----|-----------------|
E|-------3-------3--------|----------3------|
women drinkin'...
E|---------------------2--|----------3----2-|
B|---------------------3--|----------3----3-|
G|--2-------2-------2--2--|----------0----2-|
D|--2-------2-------2--0--|----------0----0-|
A|--0-------0-------0-----|-----------------|
E|-------3-------3--------|----------3------|
I'm gonna make...
E|--------------------|
B|--------------------|
G|--2-------2-------2-|
D|--2-------2-------2-|
A|--0-------0-------0-|
E|-------3-------3----|
snowballed
E|---------------------|--0-----------------------|
B|------------------3--|--------------------------|
G|-----2------2--4-----|-----4--2--0--2--0--------|
D|-----2---------------|--------------------2--0--|
A|-----0---------------|--------------------------|
E|--0------------------|--------------------------|

E|---------------------|--0-------------|
B|------------------3--|----------------|
G|-----2------2--4-----|-----4--2--0--2-|
D|-----2---------------|--------------2-|
A|-----0---------------|--------------0-|
E|--0------------------|----------------|

E|---------------------|--0-----------------------|-------|------------------|
B|------------------3--|--------------------------|-------|------------------|
G|-----2------2--4-----|-----4--2--0--2--0--------|-----2-|------------------|
D|-----2---------------|--------------------2--0--|-----2-|----------------7-|
A|-----0---------------|--------------------------|-----0-|----------------5-|
E|--0------------------|--------------------------|--0----|------------------|
Добавлено: 20.02.2014
Другие материалы по этой песне:

Страница создана 29.02.2012
http://primanota.ru/ac-dc/snowballed-chords.htm
Привет, Гость.
Предлагаем пройти революционный курс по гитаре.
Подарок от PrimaNota.Ru, забирай!