PrimaNota.ru - самый крупный в мире бесплатный архив песенных текстов, аккордов, табулатур и нот


AC/DC - She Likes Rock N Roll - текст песни, таба, бас-таба, видео

Регистрация Запомнить меня
Войти через:  Facebook Google Twitter Vk Yandex Mail.ru

AC/DC - She Likes Rock N Roll - текст песни, таба, бас-таба, видео

Печатать
Просмотров: 564
AC/DC:  She Likes Rock N' Roll (off Black Ice)
Transcribed by:  Jeff Martin
Tuning:  Standard

Intro:
|Angus                                  slide from the bent b/10
|--------------------------|-----------------------|------------|
|---------------------12/0-|-----------------------|-10B12-12/4-|
|---------------------11/0-|-----------------------|------------|
|--------------------------|-----------------------|------------|
|--------------------------|-----------------------|------------|
|--------------------------|-----------------------|------------|
|Malcom
|--------------------------|-----------------------|------------|
|--------------------------|-----------------------|------------|
|-4-4-4-4-2-----4-4-4-4----|-4-4-4-4-2-----4-4-4-4-|------------|
|-x-x-x-x-2-2-2-x-x-x-x----|-x-x-x-x-2-2-2-x-x-x-x-|------------|
|-2-2-2-2-0-2-2-2-2-2-2----|-2-2-2-2-0-2-2-2-2-2-2-|----0-2-----|
|-----------0-0------------|-----------0-0---------|-0H2--------|

|Angus
|--------------------------|-----------------------|------------|
|-4-4-4-4-------4-4-4-4----|-4-4-4-4-------4-4-4-4-|------------|
|-4-4-4-4-2-----4-4-4-4----|-4-4-4-4-2-----4-4-4-4-|------------|
|-4-4-4-4-2-2-2-4-4-4-4----|-4-4-4-4-2-2-2-4-4-4-4-|------------|
|-2-2-2-2-0-2-2-2-2-2-2----|-2-2-2-2-0-2-2-2-2-2-2-|----0-2-----|
|-----------0-0------------|-----------0-0---------|-0H2--------|
|Malcom
|--------------------------|-----------------------|------------|
|-4-4-4-4-------4-4-4-4----|-4-4-4-4-------4-4-4-4-|------------|
|-4-4-4-4-2-----4-4-4-4----|-4-4-4-4-2-----4-4-4-4-|------------|
|-4-4-4-4-2-2-2-4-4-4-4----|-4-4-4-4-2-2-2-4-4-4-4-|------------|
|-2-2-2-2-0-2-2-2-2-2-2----|-2-2-2-2-0-2-2-2-2-2-2-|----0-2-----|
|-----------0-0------------|-----------0-0---------|-0H2--------|

Verse:

|Angus
|--------------------------|-----------------------|------------|
|-4-4-4-4-------4-4-4-4----|-4-4-4-4-------4-4-4-4-|------------|
|-4-4-4-4-2-----4-4-4-4----|-4-4-4-4-2-----4-4-4-4-|------------|
|-4-4-4-4-2-2-2-4-4-4-4----|-4-4-4-4-2-2-2-4-4-4-4-|------------|
|-2-2-2-2-0-2-2-2-2-2-2----|-2-2-2-2-0-2-2-2-2-2-2-|----0-2-----|
|-----------0-0------------|-----------0-0---------|-0H2--------|
|Malcom
|--------------------------|-----------------------|------------|
|-4-4-4-4-------4-4-4-4----|-4-4-4-4-------4-4-4-4-|------------|
|-4-4-4-4-2-----4-4-4-4----|-4-4-4-4-2-----4-4-4-4-|------------|
|-4-4-4-4-2-2-2-4-4-4-4----|-4-4-4-4-2-2-2-4-4-4-4-|------------|
|-2-2-2-2-0-2-2-2-2-2-2----|-2-2-2-2-0-2-2-2-2-2-2-|----0-2-----|
|-----------0-0------------|-----------0-0---------|-0H2--------|


|Angus
|--------------------------|-----------------------|------------|
|-4-4-4-4-------4-4-4-4----|-4-4-4-4-------4-4-4-4-|------12/---|
|-4-4-4-4-2-----4-4-4-4----|-4-4-4-4-2-----4-4-4-4-|------11/---|
|-4-4-4-4-2-2-2-4-4-4-4----|-4-4-4-4-2-2-2-4-4-4-4-|------------|
|-2-2-2-2-0-2-2-2-2-2-2----|-2-2-2-2-0-2-2-2-2-2-2-|----0-------|
|-----------0-0------------|-----------0-0---------|-0H2--------|
|Malcom
|--------------------------|-----------------------|------------|
|-4-4-4-4-------4-4-4-4----|-4-4-4-4-------4-4-4-4-|------------|
|-4-4-4-4-2-----4-4-4-4----|-4-4-4-4-2-----4-4-4-4-|------------|
|-4-4-4-4-2-2-2-4-4-4-4----|-4-4-4-4-2-2-2-4-4-4-4-|------------|
|-2-2-2-2-0-2-2-2-2-2-2----|-2-2-2-2-0-2-2-2-2-2-2-|----0-2-----|
|-----------0-0------------|-----------0-0---------|-0H2--------|


|Angus
|--------------------------|-----------------------|------------|
|-4-4-4-4-------4-4-4-4----|-4-4-4-4-------4-4-4-4-|------------|
|-4-4-4-4-2-----4-4-4-4----|-4-4-4-4-2-----4-4-4-4-|------------|
|-4-4-4-4-2-2-2-4-4-4-4----|-4-4-4-4-2-2-2-4-4-4-4-|------------|
|-2-2-2-2-0-2-2-2-2-2-2----|-2-2-2-2-0-2-2-2-2-2-2-|----0-2-----|
|-----------0-0------------|-----------0-0---------|-0H2--------|
|Malcom
|--------------------------|-----------------------|------------|
|-4-4-4-4-------4-4-4-4----|-4-4-4-4-------4-4-4-4-|------------|
|-4-4-4-4-2-----4-4-4-4----|-4-4-4-4-2-----4-4-4-4-|------------|
|-4-4-4-4-2-2-2-4-4-4-4----|-4-4-4-4-2-2-2-4-4-4-4-|------------|
|-2-2-2-2-0-2-2-2-2-2-2----|-2-2-2-2-0-2-2-2-2-2-2-|----0-2-----|
|-----------0-0------------|-----------0-0---------|-0H2--------|


|Angus
|--------------------------|------------------------------------|
|-4-4-4-4-------4-4-4-4----|------------------------------------|
|-4-4-4-4-2-----4-4-4-4----|----------------44444-4-4444--------|
|-4-4-4-4-2-2-2-4-4-4-4----|----------------44444-4-4444--------|
|-2-2-2-2-0-2-2-2-2-2-2----|-99999----------22222-2-2222--------|
|-----------0-0------------|-77777-0-55-000---------------------|
|Malcom
|--------------------------|------------------------------------|
|-4-4-4-4-------4-4-4-4----|-44444------------------------------|
|-4-4-4-4-2-----4-4-4-4----|-44444---22-----44444-4-4444--------|
|-4-4-4-4-2-2-2-4-4-4-4----|-44444-0-22-2-2-44444-4-4444--------|
|-2-2-2-2-0-2-2-2-2-2-2----|-22222-0-00-2-2-22222-2-2222--------|
|-----------0-0------------|------------0-0---------------------|

Chorus:
|Angus
|---------------|---------------|---------------|---------------|
|-2-------------|-2-------------|---------------|---------------|
|-2--------5--7-|-2--------5--7-|-2--------5--7-|-2--------5-7--|
|-2--------5--7-|-2--------5--7-|-2--------5--7-|-2--------5-7--|
|-0--------3--5-|-0--------3--5-|-0--------3--5-|-0--------3-5--|
|---------------|---------------|---------------|---------------|
|Malcom
|---------------|---------------|---------------|---------------|
|---------------|---------------|---------------|---------------|
|---------------|---------------|---------------|---------------|
|-22222222-5-/7-|-22222222-5-/7-|-22222222-5-/7-|-22222222-5-7--|
|-00000000-3-/5-|-00000000-3-/5-|-00000000-3-/5-|-00000000-3-5--|
|---------------|---------------|---------------|---------------|

|Angus (could play Malcom's chords too)                                   
|--------------------------|-----------------------|---------------|
|---------------------12/0-|-----------------------|-17b19-17-15---|
|---------------------11/0-|-----------------------|------------16-|
|--------------------------|-----------------------|---------------|
|--------------------------|-----------------------|---------------|
|--------------------------|-----------------------|---------------|
|Malcom
|--------------------------|-----------------------|---------------|
|-4-4-4-4-------4-4-4-4----|-4-4-4-4-------4-4-4-4-|---------------|
|-4-4-4-4-2-----4-4-4-4----|-4-4-4-4-2-----4-4-4-4-|---------------|
|-4-4-4-4-2-2-2-4-4-4-4----|-4-4-4-4-2-2-2-4-4-4-4-|---------------|
|-2-2-2-2-0-2-2-2-2-2-2----|-2-2-2-2-0-2-2-2-2-2-2-|----0-2--------|
|-----------0-0------------|-----------0-0---------|-0H2-----------|

Verse 2 = Verse 1
Chorus 2 = Chorus 1

Solo (best shot anyways... no flames, just corrections please):
|Angus
|-7-7----7--------------------------------------------------------|
|----10-7-10-7------------7b(1/2)-7p0-6p0-5p0-7b(1/2)-7p0-6p0-5p0-|
|-------------9---------------------------------------------------|
|--------------7-7-7-9-9-9----------------------------------------|
|-----------------------------------------------------------------|
|-----------------------------------------------------------------|

|---------------------------15b17-15-12-10-12-14-10---------|
|----12-15-12-15b17-15-15-15-----------------------12-12-12-|
|-b7(1/2step)-----------------------------------------------|
|-----------------------------------------------------------|
|-----------------------------------------------------------|
|-----------------------------------------------------------|

|------19-----19---------------------------|
|-17b19--17b19--19-19-19-19-19-19b17p15-12-|
|------------------------------------------|
|------------------------------------------|
|------------------------------------------|
|------------------------------------------|

|------14-----14-----14-----14-17b19~~~~---|
|-12h15--12h15--12h15--12h15---------------|
|------------------------------------------|
|------------------------------------------|
|------------------------------------------|
|------------------------------------------| YIKES

|Malcom (under solo)
|---------------------------------:||   |---|
|---------------------------------:||   |---|
|-4-4-4-4-4-4-4-4-7-7-7-7-9-9-9-9-:||   |-4-|
|-4-4-4-4-4-4-4-4-7-7-7-7-9-9-9-9-:||   |-4-|
|-2-2-2-2-2-2-2-2-5-5-5-5-7-7-7-7-:||   |-2-|
|---------------------------------:||X4 |---|

Verse 3

|Angus                                 
|--------------------------|-----------------------|------------|
|--------------------------|-----------------------|------------|
|--------------------------|-----------------------|------------|
|--------------------------|-----------------------|------------|
|--------------------------|-----------------------|----0-2-----|
|--------------------------|-----------------------|-0H2--------|
|Malcom
|--------------------------|-----------------------|------------|
|-4-4-4-4-------4-4-4-4----|-4-4-4-4-------4-4-4-4-|------------|
|-4-4-4-4-2-----4-4-4-4----|-4-4-4-4-2-----4-4-4-4-|------------|
|-4-4-4-4-2-2-2-4-4-4-4----|-4-4-4-4-2-2-2-4-4-4-4-|------------|
|-2-2-2-2-0-2-2-2-2-2-2----|-2-2-2-2-0-2-2-2-2-2-2-|----0-2-----|
|-----------0-0------------|-----------0-0---------|-0H2--------|

|Angus (could play Malcom's chords)                                 
|------------------------12b14-12-10-----10------|
|-----------------------------------12-10--10-12-|
|------------------------------------------------|
|------------------------------------------------|
|------------------------------------------------|
|------------------------------------------------|
|Malcom
|------------------------------------------------|
|-4-4-4-4-------4-4-4-4--------------------------|
|-4-4-4-4-2-----4-4-4-4--------------------------|
|-2-2-2-2-2-2-2-2-2-2-2--------------------------|
|-----------0-0----------------------------------|

|Angus
|------------------------------------|
|------------------------------------|
|----------------44444-4-4444--------|
|----------------44444-4-4444--------|
|-99999----------22222-2-2222--------|
|-77777-0-55-000---------------------|
|Malcom
|------------------------------------|
|-44444------------------------------|
|-44444---22-----44444-4-4444--------|
|-44444-0-22-2-2-44444-4-4444--------|
|-22222-0-00-2-2-22222-2-2222--------|
|------------0-0---------------------|

Chorus 3 = Chorus 1

Finish with intro, and a few Angus riffs...  I gotta go.

Peace
Добавлено: 24.02.2012
Другие материалы по этой песне:

Страница создана 24.02.2012
http://primanota.ru/ac-dc/she-likes-rock-n-roll-chords.htm
Привет, Гость.
Предлагаем пройти революционный курс по гитаре.
Подарок от PrimaNota.Ru, забирай!