PrimaNota.ru - самый крупный в мире бесплатный архив песенных текстов, аккордов, табулатур и нот


AC/DC - Rising Power - аккорды и текст, таба, видео

Регистрация Запомнить меня
Войти через:  Facebook Google Twitter Vk Yandex Mail.ru

AC/DC - Rising Power - аккорды и текст, таба, видео

Печатать
Просмотров: 394
Rising Power
AC/DC
- File created with Instab - http://www.pconline.com/~smcarey/instab.html
-

Author/Artist: AC/DC
Title: Rising Power
Album: Flick of the Switch (1983)
Transcribed by: Dan Scheraga
Email: danscheraga@hotmail.com
 
It's a shame this song was never released as a single. It certainly is a
ballbuster.
 
Here's the intro and main verse riff:
 
----------------------------
------------------2---------
-----4------4-4---2---4-----
-----4------4-4---2---4-----
-5p2-2--5p2-2-2-------2-----
--------------------3-------
     B      B B   A   B
 
The prechorus:
 
------------------------------------
-2-2---2----------------------------
-2-2---2----------------------------
-2-2---2---2-2---2---2-2-2-2-2-2-2--
-----------2-2-0-2---2-2-2-2-2-2-2--
-----3-----0-0-0-0---0-0-0-0-0-0-0--
 A A   A   E E   E   E E E E E E E 
 
The chorus riff:
 
----------------------------------------
----2-3--2-3--2--------2-3--2-3--2-3----
-4--2-2--2-0--2-----4--2-2--2-0--2-2----
-4--2-0--2-0--2-2---4--2-0--2-0--2-0----
-2----0---------2---2----0---------0----
-----------3----0-------------3---------
 B  A D  A G  A E   B  A D  A G  A D
 
I did not bother to tab out the solo, but Angus plays it in the key of B
Behind the solo, Malcolm plays the main verse riff 3 1/2 times, then
halfway through the fourth repetition (about 2:18 into the track) he
plays
this once:
 
-----------------------
--------3-3-3--2-2-2---
-4-4-4--0-0-0--2-2-2---
-4-4-4--0-0-0--2-2-2---
-2-2-2-----------------
--------3-3-3----------
 
...and switches to this for the rest of the solo:
 
------------------------------------
----2-3--2-----------3-3-3--2-2-2---
-4--2-2--2----4-4-4--0-0-0--2-2-2---
-4--2-0--2----4-4-4--0-0-0--2-2-2---
-2----0-------2-2-2-----------------
---------------------3-3-3----------
 
Enjoy,
Dan Scheraga
Brooklyn, NY

 

________________________________________________________________________________
     
Добавлено: 17.08.2013
Другие материалы по этой песне:

Страница создана 01.03.2012
http://primanota.ru/ac-dc/rising-power-chords.htm
Привет, Гость.
Предлагаем пройти революционный курс по гитаре.
Подарок от PrimaNota.Ru, забирай!