PrimaNota.ru - самый крупный в мире бесплатный архив песенных текстов, аккордов, табулатур и нот


AC/DC - Lets Get It Up - аккорды и текст, таба, бас-таба, видео

Регистрация Запомнить меня
Войти через:  Facebook Google Twitter Vk Yandex Mail.ru

AC/DC - Lets Get It Up - аккорды и текст, таба, бас-таба, видео

Печатать
Просмотров: 449
Lets Get It Up
AC/DC
     (E)         A  D/A      (E)         A  D/A   A
 e---------------------------|
 b---2--3--3-----2--3--3--2--| Pattern 1
 g---2--2--2-----2--2--2--2--|
 D--2--4--4--2--2--4--4--2--|
 A|---------2----0--0--0--|---------2----0--0--0--0--|
 E|---0-2/4---------------|---0-2/4------------------|
    A5 B5  E        A5 B5  B5
 e|--------0------|        Pattern 2 (Verse)
 b|--------0------|
 g|-2--4---1---|----2--4---4--| X 2
 D|-2--4---2---|----2--4---4--|
 A|-0--2---2---|----0--2---2--|
 E|--------0------|
 (I'm gonna get it up.)...
                 B     E         B    E    B  A
              e|-------0--0-----------0-------------------0--| Pattern 3
              b|-4--4--0--0------4----0----4------------0-2--|
              g|-4--4--1--1------4----1----4--------------2--|
              D|-4--4--2--2------4----2----4--2------2----2--|
              A|-2--2--2--2------2----2----2--0------0----0--|
              E|-------0--0-----------0----------------------|
 
 With Pattern 1
     b   ~~~~~                     b    ~~~~~
 e-----------------------------------------------------------------|
 b-----------------------------------------------------------------|
 g|-7-9--------7--7--7--76--4----7-9---------7--7--7--7-----------------------|
 D------------------7---------------------------7------------------|
 A-----------------------------------------------------------------|
 E-----------------------------------------------------------------|
 Gtr.1
      b      b   ~                ~~    b     b    b
 e----|--7--------------------|---------7----------------
 b|-10-12--10-12--|----10-7---7-----|------10-------10-10-12-10--10-7---7-------
 g----|---------9--7----|--9-11--9-11-9-11----------------10-10-9-7-
 D-------9----------------------9
 A-------------------------------
 E-------------------------------
   Pattern 4 (GTR. 2 over Solo)                                                |
  |    A  B   E     A   B              A      B     E      D/A         A       |
 e----------------|----2--2-2-2------------|
 b----4-----------|----3--3-3-3----2-------|
 g|----2--4-4-1---|-2---4--4--4-----|--2--4-4-1-----1-|----2--2-2-2----2-------|
 D|----2--4-4-2---|-2---4--4--4-----|--2--4-4-2-----2-|-2--0--0-0-0----2-------|
 A|----0--2-2-2---|-0---2--2--2-----|--0--2-2-2-----2-|-2--0--0-0-0----0-------|
 E---------|---------0-----0-|-0----------------------|
   .........................................................................../
 Gtr.1 (cont.)
           ~~~~~      b  hb         b                 ~~~      b   r        b
 e-----------------------------------------------------------------|
 b-------------10--10---10-----10--12--12---12--14-16--14-12-15-17|
 g|-9-7---------7----9-11-(11)--9-9-11-----11--13--13---13--------------------|
 D|-----9-9--------------------------------------------------------------------|
 A-----------------------------------------------------------------|
 E-----------------------------------------------------------------|
     b   ~~~~~~     b                b   r                   ~~~~~~       b
 e----------------------------------------------------------17-19--|
 b|15-17-------15----16------------17-19----17--15---17-15---------------------|
 g-----------16-16--------------------16-------16-----------------|
 D-----------------------------------------------------------------|
 A-----------------------------------------------------------------|
 E-----------------------------------------------------------------|
              b      ~~          b                   b      b      b      b  ~~~
 e|-17---14--------------------22-24--22----19---------------------------------|
 b|---------17-18--17---15---------------------19--22-24--22-24--22-24--22-24--|
 g-------------16--------------------------------------------------|
 D-----------------------------------------------------------------|
 A-----------------------------------------------------------------|
 E-----------------------------------------------------------------|
          b    r                   b          b        b      b            b
 e----------------------------------------------------19-----22-24-|
 b|22---22-24---22-19-----------------------------22-----------------19--------|
 g--------21-23-21--19--20------21-23----21-23--21-23--------------|
 D-----------------------------------------------------------------|
 A-----------------------------------------------------------------|
 E-----------------------------------------------------------------|
               b  ~~~~
 e|22-19-------------------|
 b|------19--22-24--------|
 g-------------|
 D-------------|
 A-------------|
 E-------------|
 Outro:
    A                                                (E)        A  D/A
 e-----------------------------------------------------------------|
 b|-2--2--2--2--2---2--2--2--2--2--2--2--2--2--2--2-------------2--2--2--------|
 g|-2--2--2--2--2---2--2--2--2--2--2--2--2--2--2--2-------------2--3--3--------|
 D|-2--2--2--2--2---2--2--2--2--2--2--2--2--2--2--2----------2--2--4--4--------|
 A|-0--0--0--0--0---0--0--0--0--0--0--0--0--0--0--0--------2----0--0--0--------|
 E---------------------------------------0-2-4---------------------|
    >        >         >        >        >     >
 Lyrics:
 Let's get it up
 
 Loose lips sink ships
 So come aboard for a pleasure trip
 It's high tide, so let's ride
 The moon is rising and so am I
 
 I'm gonna get it up
 Never gonna let it up
 Cruisin' on the seven seas
 A pirate of my loving needs
 I'll never go down, never go down
 
 CHORUS:
 So let's get it up
 Let's get it up, get it right up
 Let's get it up, right to the top
 Let's get it up, right now
 
 Loose wires cause fires
 Getting tangled in my desires
 So screw 'em off and plug 'em in
 Then switch it on and start all over again
 
 I'm gonna get it up
 Never gonna let it up
 Ticking like a time bomb
 Blowing up the fuse box
 I'll never go down, never go down
Добавлено: 25.06.2012
Другие материалы по этой песне:

Страница создана 03.03.2012
http://primanota.ru/ac-dc/lets-get-it-up-chords.htm
Привет, Гость.
Предлагаем пройти революционный курс по гитаре.
Подарок от PrimaNota.Ru, забирай!