PrimaNota.ru - самый крупный в мире бесплатный архив песенных текстов, аккордов, табулатур и нот


AC/DC - If You Dare - текст песни, таба, бас-таба, видео

Регистрация Запомнить меня
Войти через:  Facebook Google Twitter Vk Yandex Mail.ru

AC/DC - If You Dare - текст песни, таба, бас-таба, видео

Печатать
Просмотров: 419
If You Dare

I couldnt find this tab anywhere on this site, until i had a look in The Razors Edge 
tabs, so all credit goes to Voytazz, just to save anyone the trouble having to look around. 
a brilliat tab none the less!!

E------------------|
B----3---3---3--3--|
G----5---5---5--5--|
D----4---4---4--4--|
A----5---5---5--5--|
E------------------| repeat

Riff/Chorus
g1
E----------------------------------------------------------------------------|
B----------------------------------------------------------------------------|
G5--------------------5-------------------------------5--------------------5-|
D5------7--5--6--7-7--5-----7--5--7--5-------------------7--5--7--5-6-7--7-5-|
A-----------------------------------------7--6--5--3-------------------------|
E----------------------------------------------------------------------------|
g2
E---------------------------------------------------------------------------|
B---------------------------------------------------------------------------|
G---------------------------------------------------------------------------|
D---------------------------------------------------------------------------|
A--------------------3---------------5---7--6--5--3-----3-------------------|
E3-5-3--5--3--4-5-5--------4--3---5------------------5----5--3-5-3-4-5-5--3-|


g1
--------------------------------------|
--------------------------------------|
--------------------------------------|
--7--5--7---5-------------------------|
-----------------7-6-5-3--------------|
-------------------------5------------|
g2
--------------------------------------|
--------------------------------------|
--------------------------------------|
-------------5------------------------|
----------------7-6-5-3---------------|
--5--3--5---------------5-------------|

	E------------------|
	B----3---3---3--3--|
	G----5---5---5--5--|
	D----4---4---4--4--|
	A----5---5---5--5--|
	E------------------| repeat

Pre Chorus
  Guitar 1
E|-------------------| |-----------------------------|
B|-------------------| |-----------------------------|
G|---5---------------| |---5--5--5--5--5--5------2---|
D|---5----------5----| |---4--4--4--4--4--4---2^4----|
A|---3-------0--5----| |---5--5--5--5--5--5----------|
E|--------------3----| |-----------------------------|
  "women if you love me   love me like you do...."
  Guitar 2
E|--------------3----| |-----------------------------|
B|---1----------3----| |-----------------------------|
G|---0----------0----| |---5--5--5--5--5--5------2---|
D|--------------0----| |---4--4--4--4--4--4---2^4----|
A|---3-------0-------| |---5--5--5--5--5--5----------|
E|--------------3----| |-----------------------------|

SOLO
      D5       D5       D5    D5     D5            D5        F5
E|-----10----10------10----10----10-----10-----------------------------------|
B|-10----13b---13b------13b------13b------13b---13b--13-10-10---------10-10--|
G|12b-------------------------------------------------------10--------10-10--|
D|-----------------------------------------------------------12-10-12--------|
A|---------------------------------------------------------------------------|
E|---------------------------------------------------------------------------|

E|-----------10------------------------------------------------------------|
B|--------10----13^10-----10-----------------------------------10----------|
G|--12b---------------12b----13^12^10----12-10-----------------10----------|
D|------------------------------------12-------12----10-----------12-12-12\|
A|------------------------------------------------12------12---------------|
E|-------------------------------------------------------------------------|
    with riff/chorus
E|--------------------------------------------------------------------------|
B|--------------------------------------------------------------------------|
G|---5---------------------------------5--------------------------5---------|
D|------7--5--<7>------5--6--7--<7>-------7--5--<7>---5------------7-5-<7>--|
A|------------P.H--------------------------------------7--6--5-3------------|
E|--------------------------------------------------------------5-----------|

E|---------------------------------------------------------------5-----------|
B|-----------------------------------------------------------------8---------|
G|------------------5-------------------------------5^7~~~~~-5-7b----7b-r^5--|
D|--5--6--7----<7>--------7--5---<7>---5-------------------------------------|
A|----------------------------------------7--6--5--3-----------------7--5-7--|
E|----------------------------------------------------5----------------------|
that' notes after the notes up|

E|------------------------------------12--11--10--------10-------------------|
B|--5------------------------------10-------------13b------13b--13^10-121010-|
G|--5--7--5--7--7--7b-----------11-------------------------------------1111--|
D|---------------------------------------------------------------------------|
A|---------------------------------------------------------------------------|
E|---------------------------------------------------------------------------|

E|-------------------------------------|-------------------------------------|
B|-------------------------------------|-------------------------------------|
G|--0^5^0^5^0^2^0^2--------------------|-------------------------------------|
D|------------------2^1^0------/10\----|-------------------------------------|
A|------------------------4-3\---------|--7--6--5------7--6--5---7--6--5-----|
E|-------------------------------------|-----------8--5-------8-5-------8-5--|
Добавлено: 28.04.2012
Другие материалы по этой песне:

Страница создана 28.04.2012
http://primanota.ru/ac-dc/if-you-dare-chords.htm
Привет, Гость.
Предлагаем пройти революционный курс по гитаре.
Подарок от PrimaNota.Ru, забирай!