PrimaNota.ru - самый крупный в мире бесплатный архив песенных текстов, аккордов, табулатур и нот


AC/DC - Goodbye And Good Riddance To Bad Luck - текст песни, таба, видео

Регистрация Запомнить меня
Войти через:  Facebook Google Twitter Vk Yandex Mail.ru

AC/DC - Goodbye And Good Riddance To Bad Luck - текст песни, таба, видео

Печатать
Просмотров: 236
"Goodbye & Good Riddance To Bad Luck" - AC/DC (from The Razor's Edge)
Standard Tuning (E A D G B E)
Key of A

This is my first tab, and I'm figuring it out by ear. 
I've looked for this tab before, and I finally decided to do it myself. 
This sounds right to me, but if you have any questions or comments, ]
please e-mail me: johntypython434@aim.com .

Intro
|-------3---------------|--3-----------------|    |-----------|-----------|
|-------3-------3-------|--3--------3--------|    |-----------|-----------|
|--2----0--2----2-------|--0--------2--------| x4 |-----------|-----------|
|--2----0--2----0-------|--0--------0--------|    |--2--------|-----------|
|--0-------0-------3p0--|--------------------|    |--2--------|-----------|
|-------3---------------|--3-----------------|    |--0--------|-----------|

Verse
|-----------|-----------|------------|-----------|
|-----------|-----------|--3---------|-----------|
|--2--------|-----------|--2---2-----|-----------| x2
|--2--------|-----------|--0---2-----|-----------|
|--0--------|-----------|------0-----|-----------|
|-----------|-----------|------------|-----------|

|------------|--3---------|    |----------------------3--|-----------|
|--3---------|--3---------|    |--3--3----3--3--------3--|-----------|
|--2---------|--0----2----| x3 |--2--2----2--2--------0--|-----------|
|--0----2----|--0----2----|    |--0--0----0--0-----2--0--|-----------|
|-------2----|-------0----|    |-------------------2-----|-----------|
|-------0----|--3---------|    |-------------------0--3--|-----------|

Refrain
|-------3---------------|--3-----------------|
|-------3-------3-------|--3--------3--------|
|--2----0--2----2-------|--0--------2--------|
|--2----0--2----0-------|--0--------0--------|
|--0-------0-------3p0--|--------------------|
|-------3---------------|--3-----------------|

Verse
|------------|------------|------------|--------8p5-|
|------------|------------|--3---------|------5-----|
|--2---2-----|--2---2-----|--2---2-----|------------|
|--2---2-----|--2---2-----|--0---2-----|------------|
|--0---0-----|--0---0-----|------0-----|------------|
|------------|------------|------------|------------|

|------------|------------|------------|------------|
|------------|------------|--3---------|------------|
|--2---2-----|--2---2-----|--2---2-----|------------|
|--2---2-----|--2---2-----|--0---2-----|------------|
|--0---0-----|--0---0-----|------0-----|------------|
|------------|------------|------------|------------|

|------------|--3---------|    |----------------------3--|-----------|
|--3---------|--3---------|    |--3--3----3--3--------3--|-----------|
|--2---------|--0----2----| x3 |--2--2----2--2--------0--|-----------|
|--0----2----|--0----2----|    |--0--0----0--0-----2--0--|-----------|
|-------2----|-------0----|    |-------------------2-----|-----------|
|-------0----|--3---------|    |-------------------0--3--|-----------|

Bridge to Solo
|------3-----|---------|---------|----3-3---3-3---3--|--3---3-3---3-3----|
|------3-----|---------|---------|----3-3---3-3---3--|--3---3-3---3-3----|
|--2---0-----|---------|---------|----0-0---0-0---0--|--0---0-0---0-0----|
|--2---0-----|---------|---------|--2-0-0-2-0-0-2-0--|--0-2-0-0-2-0-0-2--|
|--0---------|---------|---------|--2-----2-----2----|----2-----2-----2--|
|------3-----|---------|---------|--0-3-3-0-3-3-0-3--|--3-0-3-3-0-3-3-0--|

Lead Guitar solo over this Rhythm Guitar part
|------------|--3---------|    |----------------------3--|-----------|
|--3---------|--3---------|    |--3--3----3--3--------3--|-----------|
|--2---------|--0----2----| x5 |--2--2----2--2--------0--|-----------|
|--0----2----|--0----2----|    |--0--0----0--0-----2--0--|-----------|
|-------2----|-------0----|    |-------------------2-----|-----------|
|-------0----|--3---------|    |-------------------0--3--|-----------|

LG outro solo over this RG part
|-------3---------------|--3-----------------|    |------------------|
|-------3-------3-------|--3--------3--------|    |------------------|
|--2----0--2----2-------|--0--------2--------| x8 |--2---------------|
|--2----0--2----0-------|--0--------0--------|    |--2---------------|
|--0-------0-------3p0--|--------------------|    |--0---------------|
|-------3---------------|--3-----------------|    |------------------|

Добавлено: 29.05.2012
Другие материалы по этой песне:
  • Аккорды и текст

Страница создана 29.05.2012
http://primanota.ru/ac-dc/goodbye-and-good-riddance-to-bad-luck-chords.htm
Привет, Гость.
Предлагаем пройти революционный курс по гитаре.
Подарок от PrimaNota.Ru, забирай!