PrimaNota.ru - самый крупный в мире бесплатный архив песенных текстов, аккордов, табулатур и нот


AC/DC - Give It Up - аккорды и текст, таба, видео

Регистрация Запомнить меня
Войти через:  Facebook Google Twitter Vk Yandex Mail.ru

AC/DC - Give It Up - аккорды и текст, таба, видео

Печатать
Просмотров: 290
Give It Up
AC/DC
Intro:
E|------------------------|------------------|---------------------|
B|------------------------|------------------|---------------------|
G|--2--2--0----2--2--0----|------------------|--2--2--0----2--2--0-|
D|--2--2--0----2--2--0----|------------------|--2--2--0----2--2--0-|
A|--0--0--0----0--0--0----|------------------|--0--0--0----0--0--0-|
E|------------------------|------------------|---------------------|

Angus riff on verse:
E|------------------------|---------------------|
B|------------------------|---------------------|
G|--2--2--0----2--2--0----|-----------7----7--7-|
D|--2--2--0----2--2--0----|--0--7--7--7----7--7-|
A|--0--0--0----0--0--0----|--0--5--5--5----5--5-|
E|------------------------|---------------------|

Malcolm riff on verse:
E|------------------------|------------------------|
B|------------------------|------------------------|
G|--2--2--0----2--2--0----|-----------7----0--2--0-|
D|--2--2--0----2--2--0----|--0--7--7--7----0--2--0-|
A|--0--0--0----0--0--0----|--0--5--5--5------------|
E|------------------------|------------------------|

Bridge to chorus:
do I make myself clear
E|------------------------|-------------|
B|------------------------|-------------|
G|--2--2--0----2--2--0----|-----2--2--2-|
D|--2--2--0----2--2--0----|--0--2--2--2-|
A|--0--0--0----0--0--0----|--0--0--0--0-|
E|------------------------|-------------|

I'm ready to rock...
E|--3--3--3---------3----|-----------3----|
B|--3--3--3--3------3----|----3------3--3-|
G|--0--0--0--2------0----|----2------0--2-|
D|--0--0--0--0------0----|----0------0--0-|
A|-----------------------|----------------|
E|--3--3--3---------3----|-----------3----|

ready to rock...
E|-----------------------|----------------|
B|-----------------------|----------------|
G|--2--2--2--1------2----|----1------2--1-|
D|--2--2--2--2------2----|----2------2--2-|
A|--0--0--0--2------0----|----2------0--2-|
E|-----------0-----------|----0---------0-|

Chorus:
Give it up...
E|------------------------|------------------------|
B|------------------------|------------------------|
G|--2--2--0----2--2--0----|-----7--7--7----0--2--0-|
D|--2--2--0----2--2--0----|--0--7--7--7----0--2--0-|
A|--0--0--0----0--0--0----|--0--5--5--5----0--0--0-|
E|------------------------|------------------------|

whip it...
E|------------------------|------------------------|
B|------------------------|------------------------|
G|--2--2--0----2--2--0----|-----7--7--7----0--2--0-|
D|--2--2--0----2--2--0----|--0--7--7--7----0--2--0-|
A|--0--0--0----0--0--0----|--0--5--5--5----0--0--0-|
E|------------------------|------------------------|

stick it... give it up
E|------------------------|-------------------------|-------------------------|
B|------------------------|----------------3--------|-----------------3-------|
G|--2--2--0----2--2--0----|-----7--7--7----2--2-----|-----------------2--2----|
D|--2--2--0----2--2--0----|--0--7--7--7----0--2-----|-----------------0--2----|
A|--0--0--0----0--0--0----|--0--5--5--5-------0-----|--2-----------------0----|
E|------------------------|----------------------3--|--0--0--0--0--0--------3-|

give it up give it up give it up
E|--------------------------|--------------------------|----|
B|-----------------3--------|-----------------3--------|----|
G|-----------------2--2-----|-----------------2--2-----|----|
D|-----------------0--2-----|-----------------0--2-----|--2-|
A|--2-----------------0-----|--2-----------------0-----|--2-|
E|--0--0--0--0--0--------3--|--0--0--0--0--0--------3--|--0-|

E|------------------------|-------------------------|---------------------|
B|------------------------|-------------------------|---------------------|
G|--2--2--0----2--2--0----|-----7--7--7----0--2--0--|--2--2--0----2--2--0-|
D|--2--2--0----2--2--0----|--0--7--7--7----0--2--0--|--2--2--0----2--2--0-|
A|--0--0--0----0--0--0----|--0--5--5--5----0--0--0--|--0--0--0----0--0--0-|
E|------------------------|-------------------------|---------------------|

2nd verse:
E|-------------------------|---------------------|
B|-------------------------|---------------------|
G|-----7--7--7----0--2--0--|--2--2--0----2--2--0-|
D|--0--7--7--7----0--2--0--|--2--2--0----2--2--0-|
A|--0--5--5--5----0--0--0--|--0--0--0----0--0--0-|
E|-------------------------|---------------------|

after 2nd chorus to solo:

give it up give it up I' going crazy...
E|--------------------------|------------------------|-------------3-----3-|
B|-----------------3--------|------------------------|--3----------3--3--3-|
G|-----------------2--2-----|------------------------|--2----------0--2--0-|
D|-----------------0--2-----|--2----2--2----2--2--2--|--0----------0--0--0-|
A|--2-----------------0-----|--2----2--2----2--2--2--|---------------------|
E|--0--0--0--0--0--------3--|--0----0--0----0--0--0--|---------------------|

take a... give it up
E|-------------------|-------------3-----3--|----|
B|--3----------------|--3----------3--3--3--|--3-|
G|--2----------------|--2----------0--2--0--|--2-|
D|--0----------------|--0----------0--0--0--|--0-|
A|-------------------|----------------------|----|
E|-------------------|----------------------|----|

solo: give it up
E|-----------------------|------------------------|----------------------|
B|-----------------------|--3----3----------------|----------------------|
G|--2----2------2--2--2--|--2----2--5-------------|--2----2------2--2--2-|
D|--2----2------2--2--2--|--0----0--5----5--5--5--|--2----2------2--2--2-|
A|--0----0------0--0--0--|--0----0--3----3--3--3--|--0----0------0--0--0-|
E|-----------------------|------------------------|----------------------|

send me...
E|------------------------|-------------3-----3--|----|
B|--3----3----------------|--3----------3--3--3--|--3-|
G|--2----2--5-------------|--2----------0--2--0--|--2-|
D|--0----0--5----5--5--5--|--0----------0--0--0--|--0-|
A|--0----0--3----3--3--3--|----------------------|----|
E|------------------------|----------------------|----|

she'll give it up... give it up give it up
E|-------------3-----3--|----------------------|-------------------------|
B|--3----------3--3--3--|--3----------3--------|-----------------3-------|
G|--2----------0--2--0--|--2----------2--2-----|-----------------2--2----|
D|--0----------0--0--0--|--0----------0--2-----|-----------------0--2----|
A|----------------------|----------------0-----|--2--2--2--2--2-----0----|
E|----------------------|-------------------3--|--0--0--0--0--0--------3-|

give it up give it up
E|--------------------------|-------------------------|
B|-----------------3--------|-----------------3-------|
G|-----------------2--2-----|-----------------2--2----|
D|-----------------0--2-----|-----------------0--2----|
A|--2--2--2--2--2-----0-----|--2--2--2--2--2-----0----|
E|--0--0--0--0--0--------3--|--0--0--0--0--0--------3-|

Chorus:
Give it up...
E|--------------------------|---------------------|
B|--------------------------|---------------------|
G|--------------------------|--2--2--0----2--2--0-|
D|--------------------2--2--|--2--2--0----2--2--0-|
A|--2--2--2--2--2--2--2--2--|--0--0--0----0--0--0-|
E|--0--0--0--0--0--0--0--0--|---------------------|
Добавлено: 17.02.2014
Другие материалы по этой песне:
  • Аккорды и текст

Страница создана 04.07.2012
http://primanota.ru/ac-dc/give-it-up-chords.htm
Привет, Гость.
Предлагаем пройти революционный курс по гитаре.
Подарок от PrimaNota.Ru, забирай!