PrimaNota.ru - самый крупный в мире бесплатный архив песенных текстов, аккордов, табулатур и нот


AC/DC - Down On The Borderline - текст песни, таба, видео

Регистрация Запомнить меня
Войти через:  Facebook Google Twitter Vk Yandex Mail.ru

AC/DC - Down On The Borderline - текст песни, таба, видео

Печатать
Просмотров: 302
Уроки эстрадного вокала в Санкт-Петербурге
Intro
E--------------|----------------|
A-7-5-4-2/5-3-2|-7-5-4-2-5-3----|
D-9-7-6-4/7-5-4|-9-7-6-4-7-5----|
G--------------|----------------|
B--------------|----------------|
e--------------|----------------|

"oooooooh Yeah!" - Verse
E----------------------------------|----------------| X 8
A-4-2-7-7-7-2-2p4p2----------------|----------------|
D----------------------2---2--((2))|----------------|
G--------------------2-2-2-2-------|----------------|
B--------------------3---3---------|----------------|
e----------------------------------|----------------|

Chorus
E----3-------|------------------------|
A-2--0-------|------------------------|
D-2--0--2----|------------------------|
G----0--2----|------------------------|
B----3-------|------------------------|
e----3-------|------------------------|

Verse
E----------------------------------|----------------| X6
A-4-2-7-7-7-2-2p4p2----------------|----------------|
D----------------------2---2--((2))|----------------|
G--------------------2-2-2-2-------|----------------|
B--------------------3---3---------|----------------|
e----------------------------------|----------------|

Chorus
E----3-------|----3-------------------------------------------------|
A-2--0-------|-2--0-----2------------2------------------------------|
D-2--0----2--|-2--0--2--2----2---2---2---2---2----------------------|
G----0--2-2--|----0--2-----2-2-2-2-----2-2-2-2----------------------|
B----3--3----|----3--------3---3-------3---3------------------------|
e----3-------|----3-------------------------------------------------|

Bridge
E--------------|----------------|
A-7-5-4-2/5-3-2|-7-5-4-2-5-3----|
D-9-7-6-4/7-5-4|-9-7-6-4-7-5----|
G--------------|----------------|
B--------------|----------------|
e--------------|----------------|

Verse
E----------------------------------|----------------| X6
A-4-2-7-7-7-2-2p4p2----------------|----------------|
D----------------------2---2--((2))|----------------|
G--------------------2-2-2-2-------|----------------|
B--------------------3---3---------|----------------|
e----------------------------------|----------------|

Chorus
E----3-------|------------------------|
A-2--0-------|------------------------|
D-2--0--2----|------------------------|
G----0--2----|------------------------|
B----3-------|------------------------|
e----3-------|------------------------|

Solo- Rhythm
E----------------------------------|----------------| X2
A-4-2-7-7-7-2-2p4p2----------------|----------------|
D----------------------2---2--((2))|----------------|
G--------------------2-2-2-2-------|----------------|
B--------------------3---3---------|----------------|
e----------------------------------|----------------|

E-------------------------| X4
A---2-2---2-2---2-2-------|
D-2-4-4-2-4-4-2-4-4-------|
G-2-----2-----2-----2-----|
B-------------------3-----|
e-------------------------|

E---------------------3-----|
A---2-2---2-2---2-2---0-----|
D-2-4-4-2-4-4-2-4-4---0--2--|
G-2-----2-----2-----2-0--2--|
B-------------------3-3-----|
e---------------------3-----|

E----------------------------------|----------------| X2
A-4-2-7-7-7-2-2p4p2----------------|----------------|
D----------------------2---2--((2))|----------------|
G--------------------2-2-2-2-------|----------------|
B--------------------3---3---------|----------------|
e----------------------------------|----------------|

Verse
E----------------------------------|----------------| X4
A-4-2-7-7-7-2-2p4p2----------------|----------------|
D----------------------2---2--((2))|----------------|
G--------------------2-2-2-2-------|----------------|
B--------------------3---3---------|----------------|
e----------------------------------|----------------|

Chorus
E----3-------|----3-------------------------------------------------|
A-2--0-------|-2--0-----2------------2------------------------------|
D-2--0----2--|-2--0--2--2----2---2---2---2---2----------------------|
G----0--2-2--|----0--2-----2-2-2-2-----2-2-2-2----------------------|
B----3--3----|----3--------3---3-------3---3------------------------|
e----3-------|----3-------------------------------------------------|

Bridge
E--------------|----------------|
A-7-5-4-2/5-3-2|-7-5-4-2-5-3----|
D-9-7-6-4/7-5-4|-9-7-6-4-7-5----|
G--------------|----------------|
B--------------|----------------|
e--------------|----------------|

E----------------------------------|----------------| X4
A-4-2-7-7-7-2-2p4p2----------------|----------------|
D----------------------2---2--((2))|----------------|
G--------------------2-2-2-2-------|----------------|
B--------------------3---3---------|----------------|
e----------------------------------|----------------|

E-3---------------| X4
A-0---------------|
D-0---------------|
G-0-2-------------|
B-3-3-------------|
e-3---------------|

E-------------------|
A-------------2-----|
D-------------2-----|
G-------------------|
B-12/---------------|
e-13/---------------|
Добавлено: 03.03.2012
Другие материалы по этой песне:

Страница создана 03.03.2012
http://primanota.ru/ac-dc/down-on-the-borderline-chords.htm
Привет, Гость.
Предлагаем пройти революционный курс по гитаре.
Подарок от PrimaNota.Ru, забирай!