PrimaNota.ru - самый крупный в мире бесплатный архив песенных текстов, аккордов, табулатур и нот


AC/DC - Come And Get It - аккорды и текст, таба, видео

Регистрация Запомнить меня
Войти через:  Facebook Google Twitter Vk Yandex Mail.ru

AC/DC - Come And Get It - аккорды и текст, таба, видео

Печатать
Просмотров: 454
Come And Get It
AC/DC
Intro:
E|---------------------------|---------------------------|
B|---------------------------|---------------------------|
G|--5--2-----2~---0----------|--5--2-----2~---0----------|
D|--5--2-------------0-1-2---|--5--2-------------0-1-2---|
A|--3--0--0----------------0-|--3--0--0----------------0-|
E|---------------------------|---------------------------|
 
picking up...
E|---------------------------|-------------|
B|---------------------------|-------------|
G|--5--2-----2~---0----------|--5--2-----2-|
D|--5--2-------------0-1-2---|--5--2-----2-|
A|--3--0--0----------------0-|--3--0--0--0-|
E|---------------------------|-------------|

hell no distance...
E|---------------------------|-------------------|---------------------------|
B|---------------------------|-------------------|---------------------------|
G|-----------2~---0----------|-------------------|-----------2~---0----------|
D|--5--2-------------0-1-2---|-------------------|--5--2-------------0-1-2---|
A|--3--0--0----------------3-|--0----------------|--3--0--0----------------3-|
E|---------------------------|-------------------|---------------------------|

burning down... don't you...
E|-------------------|---------------------------|----|
B|-------------------|---------------------------|----|
G|-------------------|-----------2~---0----------|----|
D|-------------------|--5--2-------------0-1-2---|----|
A|--0----------------|--3--0--0----------------3-|--0-|
E|-------------------|---------------------------|----|

these are...
E|------------------------|-------------------|-----------------------|
B|------------------------|-------------------|-----------------------|
G|--5--5-----5---------5--|--5----------------|--5--5-----5---------5-|
D|--7--7--5--7----5----7--|--7----------------|--7--7--5--7----5----7-|
A|--5--5--5--5----5----5--|--5----------------|--5--5--5--5----5----5-|
E|--------3-------3-------|-------------------|--------3-------3------|

don't think... I've got my...
E|-------------------|------------------------|----|
B|-------------------|------------------------|----|
G|--5----------------|--7--7-----7---------7--|--7-|
D|--7----------------|--9--9--7--9----7----9--|--9-|
A|--5----------------|--7--7--7--7----7----7--|--7-|
E|-------------------|--------5-------5-------|----|

upon my... ...want it come and get it
E|------------------------|-------------------|--------------------------|
B|--3--3--2--3----2-------|-------------------|--------------------------|
G|--2--2--2--2----2-------|-------------------|----------2~---0----------|
D|--0--0--2--0----2----2--|--2----------------|--5--2------------0-1-2---|
A|--0--0--0--0----0----2--|--2----------------|--3--0------------------3-|
E|---------------------0--|--0----------------|--------------------------|

(come and get it) want it come and get it (come and get it)
E|-------------------|--------------------------|----|
B|-------------------|--------------------------|----|
G|-------------------|----------2~---0----------|----|
D|-------------------|--5--2------------0-1-2---|----|
A|--0----------------|--3--0------------------3-|--0-|
E|-------------------|--------------------------|----|

want it come and get it (come and get it) want it come and get it
E|--------------------------|-------------------|--------------------------|
B|--------------------------|-------------------|--------------------------|
G|----------2~---0----------|-------------------|----------2~---0----------|
D|--5--2------------0-1-2---|-------------------|--5--2------------0-1-2---|
A|--3--0------------------3-|--0----------------|--3--0------------------0-|
E|--------------------------|-------------------|--------------------------|

2nd verse:
E|-------------|
B|-------------|
G|--5--2-----2-|
D|--5--2-----2-|
A|--3--0--0--0-|
E|-------------|

after 2nd chorus to solo part:

want it come and get it
E|----------------------|----------------------|-------------|
B|----------------------|----------------------|-------------|
G|----------------------|--5--2-----2----------|-----------2-|
D|--5--2------5--2------|--5--2-----2----------|-----------2-|
A|--3--0------3--0------|--3--0--0--0----------|--3--0--0----|
E|----------------------|----------------------|-------------|

E|----------------------|-------------------------|-------------|
B|----------------------|-------------------------|-------------|
G|-----------2----------|-----------2-------------|-----------2-|
D|-----------2----------|-----------2-------------|-----------2-|
A|--3--0--0--0----------|--3--0--0--0----0--0--0--|--3--0--0--0-|
E|----------------------|-------------------------|-------------|

solo:
E|----------------------|----------------------|-------------|
B|----------------------|----------------------|-------------|
G|----------------------|----------------------|-------------|
D|--5--2--2--2----------|--5--2--2--2----------|--5--2--2--2-|
A|--5--2--2--2----------|--5--2--2--2----------|--5--2--2--2-|
E|--3--0--0--0----------|--3--0--0--0----------|--3--0--0--0-|

E|----------------------|------------------------|------------------|
B|----------------------|------------------------|----------------3-|
G|----------------------|-----2--2-------2--2----|-----2--2--2----2-|
D|--5--2--2--2----------|--5--2--2----5--2--2----|--5--2--2--2----0-|
A|--5--2--2--2----------|--3--0--0----3--0--0----|--3--0--0--0------|
E|--3--0--0--0----------|------------------------|------------------|

E|------------------------|-----------------------|---------------------|
B|------------------------|----------------3------|---------------------|
G|-----2--2-------2--2----|-----2--2--2----2------|-----2--2-------2--2-|
D|--5--2--2----5--2--2----|--5--2--2--2----0------|--5--2--2----5--2--2-|
A|--3--0--0----3--0--0----|--3--0--0--0-----------|--3--0--0----3--0--0-|
E|------------------------|----------------2------|---------------------|

E|-----------------------|------------------------|------------------------|
B|----------------3------|------------------------|------------------------|
G|-----2--2--2----2------|--5--5-----5---------5--|--5----5--5--5--5--5--5-|
D|--5--2--2--2----0------|--7--7--5--7----5----7--|--7----7--7--7--7--7--7-|
A|--3--0--0--0-----------|--5--5--5--5----5----5--|--5----5--5--5--5--5--5-|
E|-----------------------|--------3-------3-------|------------------------|

want it come and
E|------------------------|-------------------|---------------------|
B|------------------------|-------------------|---------------------|
G|--7--7-----7------------|-------------------|---------------------|
D|--9--9--7--9----7----2--|--2----------------|--5--2---------------|
A|--7--7--7--7----7----2--|--2----------------|--3--0----------5--7-|
E|--------5-------5----0--|--0----------------|----------------3--5-|

get it want it come and get it
E|--------------------|----------------------|-------|
B|--------------------|----------------------|-------|
G|--------------------|----------------------|-------|
D|--5--2--------------|--5--2----------------|--5--2-|
A|--3--0--------------|--3--0----------5--7--|--3--0-|
E|--------------------|----------------3--5--|-------|
Добавлено: 25.03.2014
Другие материалы по этой песне:

Страница создана 02.04.2012
http://primanota.ru/ac-dc/come-and-get-it-chords.htm
Привет, Гость.
Предлагаем пройти революционный курс по гитаре.
Подарок от PrimaNota.Ru, забирай!