PrimaNota.ru - самый крупный в мире бесплатный архив песенных текстов, аккордов, табулатур и нот


AC/DC - ALBUM - For Those About To Rock - текст песни, видео

Регистрация Запомнить меня
Войти через:  Facebook Google Twitter Vk Yandex Mail.ru

AC/DC - ALBUM - For Those About To Rock - текст песни, видео

Печатать
Просмотров: 237
For Those About To Rock (We Salute You)
Put The Finger On You
Let's Get It Up
Inject The Venom
Snowballed
Evil Walks
C.O.D
Breaking The Rules
Night Of The Long Knives
Spellbound
________________________
1. For Those About To Rock (We salute You)
b=bend r=release hb=hold bend ~=Hand Vibrato
 Patt.1 (Angus) 4 Times
 B Bm B5
 > > > > > >
e||--11-11-11-11-11-11-11-11-|11-11-11-11-11-11-11-11-|10-10-10-10-10-10-14-14-|
b||---0--0--0--0--0--0--0--0-|-0--0--0--0--0--0--0--0-|-0--0--0--0--0--0--0--0-|
g||*-11-11-11-11-11-11-11-11-|11-11-11-11-11-11-11-11-|11-11-11-11-11-11-11-11-|
D||*-------------------------|------------------------|------------------------|
A||--------------------------|------------------------|------------------------|
E||--------------------------|------------------------|------------------------|
 endpatt.
e|14-12-12-12-12-12-12-12--||
b|-0--0--0--0--0--0--0--0--||
g|11-11-11-11-11-11-11-11-*||
D|------------------------*||
A|-------------------------||
E|-------------------------||
 (Malcolm) with Patt.1
 B5 G5 D/F#
e|------------------|------------------|------------------|------------------|
b|------------------|------------------|------------------|------------------|
g|-4----------------|--------------0---|-2--------1-------|------------------|
D|-4----------------|-----------0------|-0--------2-------|------------------|
A|-2----------------|------------------|----------2-------|------------------|
E|------------------|--------3---------|-2-----x--0-------|------------------|
 B5 G5 D/F# E
e|------------------|------------------|-3----------------|------------------|
b|------------------|------------------|-3-----3----------|------------------|
g|-4----------------|------------------|-0-----2------1---|------------------|
D|-4----------------|------------------|-0-----0------2---|------------------|
A|-2----------------|------------------|--------------2---|------------------|
E|------------------|------------------|-3-----2------0---|------------------|
 B5 B5/A G5 D/F# E5
e|------------------|------------------|------------------|------------------|
b|------------------|------------------|------------------|------------------|
g|-4-----4----------|--------------0---|------------------|------------------|
D|-4-----4----------|-----------0------|-------0--2-------|------------------|
A|-2-----0----------|------------------|----0-----2-------|------------------|
E|------------------|--------3---------|-2--------0-------|------------------|
e|------------------|------------------|-3----------------|------------------|
b|------------------|------------------|-3-----3----------|------------------|
g|-4-----4----------|------------------|-0-----2-------1--|------------------|
D|-4-----4----------|------------------|-0-----0-------2--|------------------|
A|-2-----0----------|------------------|---------------2--|------------------|
E|------------------|------------------|-3-----2----------|------------------|
 Bsus4 (Angus)
 Oh!
e|--12-12-12-12-12-12-12-12-|--12-12-12-12-12-12-12-12-|
b|---0--0--0--0--0--0--0--0-|---0--0--0--0--0--0--0--0-|
g|--11-11-11-11-11-11-11-11-|--11-11-11-11-11-11-11-11-|
D|--------------------------|--------------------------|
A|--------------------------|--------------------------|
E|--------------------------|--------------------------|
Pattern 2
Yeah,Yeah, E
 B5 B5/A G5 D/F#
e|-------------|----3----|---------|--------0----------|
b|-------------|----3----|--3------|--------0--0-------|
g|-4----4------|----0----|--2--1---|--0-0-0-0----------|
D|-4----4------|----0----|--0--2---|--2-0-2----2-------|
A|-2----0------|---------|-----2---|-------------------|
E|-------------|----3----|--2--0---|-------------------|
Pattern 3
Yeah, oh. E
 B5 B5/A G5 D/F# end it w/pattern 2 (2x)
e|-------------|----3----|---------|--------7-7-7------|
b|-------------|----3----|--3------|--------7-7-7------|
g|-4----4------|----0----|--2--1---|--------------0----|
D|-4----4------|----0----|--0--2---|--2/-9-------------|
A|-2----0------|---------|-----2---|-----------------0-|
E|-------------|----3----|--2--0---|-------------------|
Pattern 4
Stand up...
 B D/A A E G5 E
e|-----------|-------------------|--------|--3---------|
b|4/------3-3|3-3-----2-----2----|--------|--3---------|
g|4/------2-2|2-2-----2-----2--1-|--------|--0-----1---|
D|4/------4-4|4-4-----2-----2--2-|--------|--0-----2---| 3 x
A|2/------0-0|0-0-----0-----0--2-|--------|--------2---|
E|-----------|-----------------0-|--------|--3-----0---|
Chorus w/patt. 3
 b hold bend.....
e|--------------------------------------------------------|--------------------|
b|-10-(12)-------------(12)--(12)--(12)--(12)--(12)--(12)-|(12)-(12)-(12)-(12)-|
g|--------------------------------------------------------|--------------------|
D|--------------------------------------------------------|--------------------|
A|--------------------------------------------------------|--------------------|
E|--------------------------------------------------------|--------------------|
 A D/A G D
 b b ~~~~~~~
e|----------------------------------|------------------5----------------------|
b|(12)-(12)-(12)-(12)-(12)-(12)----|8-10--8-10----------8--5---5-------------|
g|---------------------------------|-------------------------8---8--7--5-----|
D|----------------------------------|-------------------------------------7--|
A|----------------------------------|----------------------------------------|
E|----------------------------------|-----------------------------------------|
 A D/A A G D A D/A A G
 ~~~~~~~~~ b r ~~~~~~~~~ b b
e|----------------------------------------------5-----------5------------5----|
b|--------------------------------------------5---8-5-----5---8--5-----5---8-5|
g|--------------------7-9--7--5--7--------7-9---------7-9----------7-9--------|
D|5----x----7----------------------------------------------------------------|
A|----------------------------------------------------------------------------|
E|----------------------------------------------------------------------------|
 D A D/A A G
 b b b r ~~~~~~ b r ~~~~~~ b r
e|------5-----------5-------5-------------10----8--9--8-----------------------|
b|----5---8-5-----5---8-5-----7-8---7-------------------10-----12-13-12-10--12|
g|7-9---------7-9---------7---7-8---7-----------------------------------------|
D|----------------------------------------------------------------------------|
A|----------------------------------------------------------------------------|
E|----------------------------------------------------------------------------|
 D A D/A A G D
 b b b b b b r
e|---------------------------12---12---12------------------------------------|
b|-13-12-13------12-12-14---------12---14-------/13-15-17--13-13-15-13-10--13|
g|----------------------------------------------------------------------------|
D|----------------------------------------------------------------------------|
A|----------------------------------------------------------------------------|
E|----------------------------------------------------------------------------|
 A D/A A G D A
 b b b b b ~~~~~~~~~~~ r ~~~~
e|----------------------------------------------------------------------------|
b|-15--13-15--13-15--13-15--13-15--13-15-----------10-12-13-12-10--------10---|
g|-------------------------------------------------------------------/11------|
D|----------------------------------------------------------------------------|
A|----------------------------------------------------------------------------|
E|----------------------------------------------------------------------------|
 D/A A G D A D/A A G D
 b b ~~~~~ ~~~~ b b b
e|-------------------12-------------------------------------------------------|
b|10-------10----12-13-8--8---------------------------------20-22-20-22-20-22|
g|---12-14-----------------------9-7-5-7------5-------------------------------|
D|----------------------------------------------7--7--7----------------------|
A|----------------------------------------------------------------------------|
E|----------------------------------------------------------------------------|
 G D A B5
Fire! We sa lute you
 ub ub ub ub
e|---------------------------------------|
b|---------8------8------8-----5---------|
g|------10-12--10-12--10-12--7-9------4--|
D|------------------------------------4--|
A|------------------------------------2--|
E|---------------------------------------|
 G D A B5
 We ...
 ub ub ub ub
e|---------------------------------------|
b|---------8-------8------7------5-------|
g|------10-12---10-12---9-11---7-9----4--|
D|------------------------------------4--|
A|------------------------------------2--|
E|---------------------------------------|
 G D A B5 G5
 We.... Ow! Fire! We
 ub ub ub ub ub ub ub ub
e|---------10-------10-----14-----12-----------------10-----10-----10-----10--|
b|------13-15----13-15--17-19--15-17--------------13-15--13-15--13-15--13-15--|
g|------------------------------------4---------------------------------------|
D|------------------------------------4---------------------------------------|
A|------------------------------------2---------------------------------------|
E|----------------------------------------------------------------------------|
 D A B5
 ub ub ub ub ub ub hb ub ub
e|---10-----9------9------9------9------9------7----7---7---7------7--7--7-|
b|13-15--12-14--12-14--12-14--12-14--12-14--10-12--12--12--12--10-12-12-12-|
g|--------------------------------------------------------------------------|
D|--------------------------------------------------------------------------|
A|--------------------------------------------------------------------------|
E|--------------------------------------------------------------------------|
 G5 D A B5 G5
 ub ub ub ub ub ub ~~~~~~~ ~~~~~~ ~~~~~~ ub ub
e|----7---------------------------------------------------------------7------7|
b|10-12-------8------8-----7----5----5--------------------------10-12--10-12|
g|---------10-12--10-12--9-11--7-9--7-9---4-------4-----4---4---------------|
D|----------------------------------------------------------------------------|
A|----------------------------------------------------------------------------|
E|----------------------------------------------------------------------------|
 D A (OH!) F.. t... a... t. r....
 ub ub
e|---10-----12--| B5
b|13-15--15-17--|
g|---------------|
D|---------------|
A|---------------|
E|---------------|
 G5 D A B5 G5
 b b ~~~~~~ b b b hb b ~~~~~~
e||-----------------|--|------------------|------|---------------------|--------|
b||-----------------|--|10-12---12-10-12-|------|---------------------|--------|
g||*-9-11--11-9-11--|--|------------------|------|-9-11---11--9--11 ---|--------|
D||*----------------|--|------------------|------|---------------------|--------|
A||-----------------|--|------------------|------|---------------------|--------|
E||-----------------|--|------------------|------|---------------------|--------|
 D 1.-A
 b b b ~~~~~~~
e|----|------------------------||
b|-10-|-10-12-12-12-10-12-----||
g|----|-----------------------*||
D|----|-----------------------*||
A|----|------------------------||
E|----|------------------------||
2.- A B5
 b b b b b b b
e|-----------------------------------------------7----------------------------|
b|12-10-12--10-12-10-12-10-12-10-12-10-12----------10-7---7-------------------|
g|------------------------------------------------------9---9--7--------------|
D|---------------------------------------------------------------9-----------|
A|----------------------------------------------------------------------------|
E|----------------------------------------------------------------------------|
 G5 D A
e|----------7-----------------------------------------------------------------|
b|------------10-7-10-7-6-7-6-------------------------------------------------|
g|9-11------------------------9-7-7-------------------------------------------|
D|----------------------------------9-----9---7------------------------------|
A|------------------------------------7-9---9--------------------------------|
E|----------------------------------------------------------------------------|
B5 G5
 ~~~~~~ ~~~~~~~ b b
e|----------------------------------------------------------------------------|
b|--10-12-12-12------10-12-12-12-12-------10-12-12-10-12----15-17-15-17-------|
g|----------------------------------------------------------------------------|
D|----------------------------------------------------------------------------|
A|----------------------------------------------------------------------------|
E|----------------------------------------------------------------------------|
 D A B5
 b b r b b b b b
e|12---------------------------------------17-------17-------17-------17------|
b|---12-15--17-19-17-19--19----17-15-17-19----17-19----17-19----17-19----17-19|
g|----------------------------------------------------------------------------|
D|----------------------------------------------------------------------------|
A|----------------------------------------------------------------------------|
E|----------------------------------------------------------------------------|
 G5 D
 b b b r b
e|17---------17-------17--------------------------------------------15-17-----|
b|---17-19------17-19----17-19-17-19----19-17-15----17-15--------12-----------|
g|-----------------------------------------------16-------16---14-------------|
D|----------------------------------------------------------------------------|
A|----------------------------------------------------------------------------|
E|----------------------------------------------------------------------------|
 A B5
 b hb r
e|-14-12-------12-14-12------------17-----------------------------------------|
b|-------15-15----------15-17-19-------19--19--19-19-19-19-19-17-17-15--------|
g|----------------------------------------------------------------------------|
D|----------------------------------------------------------------------------|
A|----------------------------------------------------------------------------|
E|----------------------------------------------------------------------------|
 G5 D A G5 D A
 b b b b b b b
e|17-19---17-19---------------17-19--17-14-17-19---17-19--------------22-24---|
b|----------------17-19---17------------------------------17-19--17-----------|
g|----------------------------------------------------------------------------|
D|----------------------------------------------------------------------------|
A|----------------------------------------------------------------------------|
E|----------------------------------------------------------------------------|
 G5 D A
 b b ub ub ub
e|22--19--------------------------------------|
b|-------22-24--22-24------15-----14-----10---|
g|----------------------17-19--16-18--12-14---|
D|--------------------------------------------|
A|--------------------------------------------|
E|--------------------------------------------|
 B5 A5 G5 D/F# E Fire! B5
e|--------------------------------------------|
b|---------3---3------------------------------|
g|-4---2---0---2---1----------------4/--------|
D|-4---2---0---0---2----------------4/--------|
A|-2---0-----------2----------------2/--------|
E|---------3---2---0--------------------------|
Lyrics:
We roll tonight
To the guitar bite
Stand up and be counted
For what you are about to recieve
We are the dealers
We'll give you everything you need
Hail hail to the good times
'Cause rock has got to ride away
We ain't no legend, ain't no cause
We're just living for today
For those about to rock, we salute you
We rock at dawn on the front line
Like a bolt right out of the blue
The sky's alight with the guitar bite
Heads will roll and rock tonight
For those about to rock, we salute you
We're just a battery for hire with a guitar fire
Ready and aimed at you
Pick up your balls and load up your cannon
For a twenty-one gun salute
For those about to rock - fire
We salute you
Shoot, shoot
We salute you

------------------------------------------------

2.Put The Finger On You
 
AC/DC 
Put The Finger On You 
 

 
(Malcolm Young, Angus Young & Brian Johnson) 
 
 
 
 
 
 Intro: 
|-----------------3--3--2--|-------------------------| 
|--5--5--5--5--5--3--3--3--|----3--3--3--3--3--3--3--| 
|--2--2--2--2--2-----------|----2--2--2--2--2--2--2--| 
|--------------------------|-------------------------| 
|--0--0--0--0--0--0--0--0--|----0--0--0--0--0--0--0--| 
|--------------------------|-------------------------| 
 
 I put the finger... 
|-----------------3--3--2--|-------------------------|-----------------3--3--2--| 
|--5--5--5--5--5--3--3--3--|----3--3--3--3--3--3--3--|--5--5--5--5--5--3--3--3--| 
|--2--2--2--2--2-----------|----2--2--2--2--2--2--2--|--2--2--2--2--2-----------| 
|--------------------------|-------------------------|--------------------------| 
|--0--0--0--0--0--0--0--0--|----0--0--0--0--0--0--0--|--0--0--0--0--0--0--0--0--| 
|--------------------------|-------------------------|--------------------------| 
 
 my hands... 
|-------------------------|-----------------3--3--2--|-------------------------| 
|----3--3--3--3--3--3--3--|--5--5--5--5--5--3--3--3--|----3--3--3--3--3--3--3--| 
|----2--2--2--2--2--2--2--|--2--2--2--2--2-----------|----2--2--2--2--2--2--2--| 
|-------------------------|--------------------------|-------------------------| 
|----0--0--0--0--0--0--0--|--0--0--0--0--0--0--0--0--|----0--0--0--0--0--0--0--| 
|-------------------------|--------------------------|-------------------------| 
 
 I can't stop... it's movin'... 
|-----------------3--3--2--|-------------------------|-----------------3--3--2--| 
|--5--5--5--5--5--3--3--3--|----3--3--3--3--3--3--3--|--5--5--5--5--5--3--3--3--| 
|--2--2--2--2--2-----------|----2--2--2--2--2--2--2--|--2--2--2--2--2-----------| 
|--------------------------|-------------------------|--------------------------| 
|--0--0--0--0--0--0--0--0--|----0--0--0--0--0--0--0--|--0--0--0--0--0--0--0--0--| 
|--------------------------|-------------------------|--------------------------| 
 
 I got fire... 
|-------------------------|--------------------------|--------------------------| 
|----3--3--3--3--3--3--3--|--4--4--5--5--5--4--4--5--|--5--5--5--5--5--5--5--5--| 
|----2--2--2--2--2--2--2--|--4--4--4--4--4--4--4--4--|--4--4--4--4--4--4--4--4--| 
|-------------------------|--4--4--6--6--6--4--4--6--|--6--6--6--6--6--6--6--6--| 
|----0--0--0--0--0--0--0--|--------------------------|--------------------------| 
|-------------------------|--------------------------|--------------------------| 
| | | | 
|-------------------------|--------------------------|--------------------------| 
|-------------------------|--------------------------|--------------------------| 
|-------------------------|--4--------------------1--|--------------------------| 
|-------------------------|--4--------------------2--|--------------------------| 
|-------------------------|--2--------------------2--|--------------------------| 
|-------------------------|-----------------------0--|--------------------------| 
 
 baby ain't... 
|--------------------------|--------------------------| 
|--4--4--5--5--5--4--4--5--|--5--5--5--5--5--5--5--5--| 
|--4--4--4--4--4--4--4--4--|--4--4--4--4--4--4--4--4--| 
|--4--4--6--6--6--4--4--6--|--6--6--6--6--6--6--6--6--| 
|--------------------------|--------------------------| 
|--------------------------|--------------------------| 
| | | 
|--------------------------|--------------------------| 
|--------------------------|--------------------------| 
|--4--------------------1--|--------------------------| 
|--4--------------------2--|--------------------------| 
|--2--------------------2--|--------------------------| 
|-----------------------0--|--------------------------| 
 
 don't keep... 
|--------------------------|--------------------------| 
|--4--4--5--5--5--4--4--5--|--5--5--5--5--5--5--5--5--| 
|--4--4--4--4--4--4--4--4--|--4--4--4--4--4--4--4--4--| 
|--4--4--6--6--6--4--4--6--|--6--6--6--6--6--6--6--6--| 
|--------------------------|--------------------------| 
|--------------------------|--------------------------| 
| | | 
|--------------------------|--------------------------| 
|--------------------------|--------------------------| 
|--4--------------------1--|--------------------------| 
|--4--------------------2--|--------------------------| 
|--2--------------------2--|--------------------------| 
|-----------------------0--|--------------------------| 
 
 it's knocking... 
|--------------------------|-------------------------| 
|--4--4--5--5--5--4--4--5--|--5--5--5--5--5--5--5----| 
|--4--4--4--4--4--4--4--4--|--4--4--4--4--4--4--4----| 
|--4--4--6--6--6--4--4--6--|--6--6--6--6--6--6--6----| 
|--------------------------|-------------------------| 
|--------------------------|-------------------------| 
| | | 
|--------------------------|-------------------------| 
|--------------------------|-------------------------| 
|--4--------------------1--|-------------------------| 
|--4--------------------2--|-------------------------| 
|--2--------------------2--|-------------------------| 
|-----------------------0--|-------------------------| 
 
chorus: 
 I put the finger right on you 
|------------------------------|------------------------| 
|--12----------12----10----14--|--14--14----12----------| 
|--12--11--11--12----11----14--|--14--14----13----------| 
|--12--12--12--12----12----14--|--14--14----14----------| 
|------------------------------|------------------------| 
|------------------------------|------------------------| 
| | | 
|------------------------------|------------------------| 
|-------3-------------3--------|------------------------| 
|---0---2-------0-----2--------|---2---2-----1----------| 
|---0---0---0---0-----0--------|---2---2-----2----------| 
|---2-----------2--------------|---0---0-----2----------| 
|---3-----------3--------------|-----------0------------| 
 
 I put the finger right on you 
|------------------------------|------------------------| 
|--12----------12----10----14--|--14--14----12----------| 
|--12--11--11--12----11----14--|--14--14----13----------| 
|--12--12--12--12----12----14--|--14--14----14----------| 
|------------------------------|------------------------| 
|------------------------------|------------------------| 
| | | 
|------------------------------|------------------------| 
|-------3-------------3--------|------------------------| 
|---0---2-------0-----2--------|---2---2-----1----------| 
|---0---0---0---0-----0--------|---2---2-----2----------| 
|---2-----------2--------------|---0---0-----2----------| 
|---3-----------3--------------|-----------0------------| 
 
 you put your finger on me too 
|------------------------------|------------------------| 
|--12----------12----10----14--|--14--14----12----------| 
|--12--11--11--12----11----14--|--14--14----13----------| 
|--12--12--12--12----12----14--|--14--14----14----------| 
|------------------------------|------------------------| 
|------------------------------|------------------------| 
| | | 
|------------------------------|------------------------| 
|-------3-------------3--------|------------------------| 
|---0---2-------0-----2--------|---2---2-----1----------| 
|---0---0---0---0-----0--------|---2---2-----2----------| 
|---2-----------2--------------|---0---0-----2----------| 
|---3-----------3--------------|-----------0------------| 
 
 I put the finger I put the finger 
|------------------------------|------------------------------| 
|--12----------12----10----10--|--12----------12----10----10--| 
|--12--11--11--12----11----11--|--12--11--11--12----11----11--| 
|--12--12--12--12----12----12--|--12--12--12--12----12----12--| 
|------------------------------|------------------------------| 
|------------------------------|------------------------------| 
| | | 
|------------------------------|------------------------------| 
|-------3-------------3--------|-------3-------------3--------| 
|---0---2-------0-----2--------|---0---2-------0-----2--------| 
|---0---0---0---0-----0--------|---0---0---0---0-----0--------| 
|---2-----------2--------------|---2-----------2--------------| 
|---3-----------3--------------|---3-----------3--------------| 
 
 I put the finger I put the finger 
|------12----------------------|------12---------------------| 
|--14--12------14----12----12--|--14--12------14----12-------| 
|--14--13--13--14----13----13--|--14--13--13--14----13-------| 
|--14------14--14----14----14--|--14------14--14----14-------| 
|------------------------------|-----------------------------| 
|------------------------------|-----------------------------| 
| | | 
|------------------------------|-----------------------------| 
|------------------------------|-----------------------------| 
|---2-----------2--------------|---2-----------2-------------| 
|---2---2---2---2-----2-----2--|---2---2---2---2-----2----2--| 
|---0---2---2---0-----2-----2--|---0---2---2---0-----2----2--| 
|-------0---0---------0-----0--|-------0---0---------0----0--| 
 
go on with 2nd verse: 
|-----------------3--3--2--|-------------------------| 
|--5--5--5--5--5--3--3--3--|----3--3--3--3--3--3--3--| 
|--2--2--2--2--2-----------|----2--2--2--2--2--2--2--| 
|--------------------------|-------------------------| 
|--0--0--0--0--0--0--0--0--|----0--0--0--0--0--0--0--| 
|--------------------------|-------------------------| 
| | | 
|--------------------------|-------------------------| 
|-----------------------3--|-------------------------| 
|--2--2--2--2--2--0--0--2--|----2--2--2--2--2--2--2--| 
|--2--2--2--2--2--0--0--0--|----0--0--0--0--0--0--0--| 
|--0--0--0--0--0--0--0--0--|----0--0--0--0--0--0--0--| 
|--------------------------|-------------------------| 
 
 
after solo: 
 put it right on you put it 
|--3--2--------------|---------------------|--3--2--------------| 
|--3--3--------------|---------------------|--3--3--------------| 
|--2--2--------------|--2--2----1----------|--2--2--------------| 
|--0--0--------------|--2--2----2----------|--0--0--------------| 
|--0--0--------------|--0--0----2----------|--0--0--------------| 
|--------------------|----------0----------|--------------------| 
 
 right on you want me too 
|---------------------|--3--2--------------|---------------------| 
|---------------------|--3--3--------------|---------------------| 
|--2--2----1----------|--2--2--------------|--2--2----1----------| 
|--2--2----2----------|--0--0--------------|--2--2----2----------| 
|--0--0----2----------|--0--0--------------|--0--0----2----------| 
|----------0----------|--------------------|----------0----------| 
 
|------------------------|------------------------|------------------------| 
|-----3------------------|-----3------------------|------------------------| 
|--0--2-----0----2----2--|--0--2-----0----2----2--|--2--1-----2------------| 
|--0--0--0--0----0----0--|--0--0--0--0----0----0--|--2--2-----2----2----2--| 
|--2--0--0--2----0----0--|--2--0--0--2----0----0--|--0--2--2--0----2----2--| 
|--3--------3------------|--3--------3------------|-----0--0-------0----0--| 
 
|-------------------------|-----------------------|------------------| 
|-------------------------|---------------3----3--|------------------| 
|--2--1-----2-------------|--2----2----2--0----2--|------------------| 
|--2--2-----2----2--2--2--|--2----2----2--0----0--|------------------| 
|--0--2--2--0----2--2--2--|--0----0----0--x----0--|------------------| 
|-----0--0-------0--0--0--|---------------3-------|------------------| 
 
|-----------------------|------------------| 
|---------------3----3--|------------------| 
|--2----2----2--0----2--|------------------| 
|--2----2----2--0----0--|------------------| 
|--0----0----0--x----0--|------------------| 
|---------------3-------|------------------| 
 
 
_______________________________________________________ 

3.Let's Get It Up
(E) A D/A (E) A D/A A
e|-----------------------|--------------------------|
b|--------------2--3--3--|--------------2--3--3--2--| Pattern 1
g|--------------2--2--2--|--------------2--2--2--2--|
D|-----------2--2--4--4--|-----------2--2--4--4--2--|
A|---------2----0--0--0--|---------2----0--0--0--0--|
E|---0-2/4---------------|---0-2/4------------------|
 A5 B5 E A5 B5 B5
e|--------0---|--------------| Pattern 2 (Verse)
b|--------0---|--------------|
g|-2--4---1---|----2--4---4--| X 2
D|-2--4---2---|----2--4---4--|
A|-0--2---2---|----0--2---2--|
E|--------0---|--------------|
(I'm gonna get it up.)...
 B E B E B A
 e|-------0--0-----------0-------------------0--| Pattern 3
 b|-4--4--0--0------4----0----4------------0-2--|
 g|-4--4--1--1------4----1----4--------------2--|
 D|-4--4--2--2------4----2----4--2------2----2--|
 A|-2--2--2--2------2----2----2--0------0----0--|
 E|-------0--0-----------0----------------------|
With Pattern 1
 b ~~~~~ b ~~~~~
e|----------------------------------------------------------------------------|
b|----------------------------------------------------------------------------|
g|-7-9--------7--7--7--76--4----7-9---------7--7--7--7-----------------------|
D|-----------------------------7---------------------------7------------------|
A|----------------------------------------------------------------------------|
E|----------------------------------------------------------------------------|
Gtr.1
 b b ~ ~~ b b b
e|---------------|--7--------------|-----------------|---------7----------------
b|-10-12--10-12--|----10-7---7-----|------10-------10-10-12-10--10-7---7-------
g|---------------|---------9--7----|--9-11--9-11-9-11----------------10-10-9-7-
D|---------------|--------------9--|-----------------|-------------------------9
A|---------------|-----------------|-----------------|--------------------------
E|---------------|-----------------|-----------------|--------------------------
 Pattern 4 (GTR. 2 over Solo) |
 | A B E A B A B E D/A A |
e|---------------|-----------------|-----------------|----2--2-2-2------------|
b|---------------|-----------4-----|-----------------|----3--3-3-3----2-------|
g|----2--4-4-1---|-2---4--4--4-----|--2--4-4-1-----1-|----2--2-2-2----2-------|
D|----2--4-4-2---|-2---4--4--4-----|--2--4-4-2-----2-|-2--0--0-0-0----2-------|
A|----0--2-2-2---|-0---2--2--2-----|--0--2-2-2-----2-|-2--0--0-0-0----0-------|
E|-----------0---|-----------------|---------0-----0-|-0----------------------|
 .........................................................................../
Gtr.1 (cont.)
 ~~~~~ b hb b ~~~ b r b
e|----------------------------------------------------------------------------|
b|------------------------10--10---10-----10--12--12---12--14-16--14-12-15-17|
g|-9-7---------7----9-11-(11)--9-9-11-----11--13--13---13--------------------|
D|-----9-9--------------------------------------------------------------------|
A|----------------------------------------------------------------------------|
E|----------------------------------------------------------------------------|
 b ~~~~~~ b b r ~~~~~~ b
e|---------------------------------------------------------------------17-19--|
b|15-17-------15----16------------17-19----17--15---17-15---------------------|
g|----------------------16-16--------------------16-------16-----------------|
D|----------------------------------------------------------------------------|
A|----------------------------------------------------------------------------|
E|----------------------------------------------------------------------------|
 b ~~ b b b b b ~~~
e|-17---14--------------------22-24--22----19---------------------------------|
b|---------17-18--17---15---------------------19--22-24--22-24--22-24--22-24--|
g|------------------------16--------------------------------------------------|
D|----------------------------------------------------------------------------|
A|----------------------------------------------------------------------------|
E|----------------------------------------------------------------------------|
 b r b b b b b
e|---------------------------------------------------------------19-----22-24-|
b|22---22-24---22-19-----------------------------22-----------------19--------|
g|-------------------21-23-21--19--20------21-23----21-23--21-23--------------|
D|----------------------------------------------------------------------------|
A|----------------------------------------------------------------------------|
E|----------------------------------------------------------------------------|
 b ~~~~
e|22-19-------------------|
b|------19--22-24--------|
g|------------------------|
D|------------------------|
A|------------------------|
E|------------------------|
Outro:
 A (E) A D/A
e|----------------------------------------------------------------------------|
b|-2--2--2--2--2---2--2--2--2--2--2--2--2--2--2--2-------------2--2--2--------|
g|-2--2--2--2--2---2--2--2--2--2--2--2--2--2--2--2-------------2--3--3--------|
D|-2--2--2--2--2---2--2--2--2--2--2--2--2--2--2--2----------2--2--4--4--------|
A|-0--0--0--0--0---0--0--0--0--0--0--0--0--0--0--0--------2----0--0--0--------|
E|--------------------------------------------------0-2-4---------------------|
 > > > > > >
Lyrics:
Let's get it up
Loose lips sink ships
So come aboard for a pleasure trip
It's high tide, so let's ride
The moon is rising and so am I
I'm gonna get it up
Never gonna let it up
Cruisin' on the seven seas
A pirate of my loving needs
I'll never go down, never go down
CHORUS:
So let's get it up
Let's get it up, get it right up
Let's get it up, right to the top
Let's get it up, right now
Loose wires cause fires
Getting tangled in my desires
So screw 'em off and plug 'em in
Then switch it on and start all over again
I'm gonna get it up
Never gonna let it up
Ticking like a time bomb
Blowing up the fuse box
I'll never go down, never go down
CHORUS
_____________________________________________________
4.Inject The Venom
 Intro:
E|------------------------|------------------|------------------------|
B|------------------------|------------------|------------------------|
G|-------0--2------2------|------------------|-------0--2------2------|
D|----2--0--2------2---2--|------------------|----2--0--2------2---2--|
A|----2-----0------0---2--|------------------|----2-----0------0---2--|
E|----0--3-----------3-0--|------------------|----0--3-----------3-0--|
Verses (repeat):
 No mercy...
|------------------|------------------------|
|------------------|------------------------|
|------------------|-------0--2------2------|
|------------------|----2--0--2------2---2--|
|------------------|----2-----0------0---2--|
|------------------|----0--3-----------3-0--|
 Tell no truth... tell no lies
|---------------------------|----------------------------|
|-------3--3----------------|--------3--3----------------|
|----2--4--2----------------|--2--2--4--2----------------|
|----2--5--4----0-0-5-4-2-2-|--2--2--5--4----0-0-5-4-2-2-|
|----0----------------------|--0--0----------------------|
|---------------------------|----------------------------|
 cross your heart... hope to die
|----------------------------|-----------------------------|
|--------3--3----------------|---------3--3----------------|
|--2--2--4--2----------------|--2------4--2----------------|
|--2--2--5--4----0-0-5-4-2-2-|--2------5--4----0-0-5-4-2-4-|
|--0--0----------------------|--0--0-0---------------------|
|----------------------------|-----------------------------|
 never give... scratch like...
|-----------------------------|-----------------------------|
|--4--4-4-5--5----------------|--4--4-4-5--5----------------|
|--4--4-4-6--4----------------|--4--4-4-6--4----------------|
|--4--4-4-7--6----6-6-7-6-4-6-|--4--4-4-7--6----6-6-7-6-4-6-|
|-----------------------------|-----------------------------|
|-----------------------------|-----------------------------|
 inject the venom it'll be your last attack
|-----------------------------|----------------------------|
|--4--4-4-5--5----------------|--4--4-4-5--5---------------|
|--4--4-4-6--4----------------|--4--4-4-6--4---------------|
|--4--4-4-7--6----6-6-7-6-4-6-|--4--4-4-7--6----6-6-7-6-4--|
|-----------------------------|----------------------------|
|-----------------------------|----------------------------|

 Chorus:
Inject the venom
|-------------------------|-----------------------------|
|-------------------------|-----------------------------|
|-------------------------|-----------------------------|
|-----5--6--7-------5--6--|-----------------------------|
|--2--5--6--7-------4--5--|--5-5-5-4-2---2-----------2--|
|--0--3--4--5----0--------|------------3-0----0-0-3--0--|
 Inject...
|-------------------------|-----------------------------|
|-------------------------|-----------------------------|
|-------------------------|-----------------------------|
|-----5--6--7-------5--6--|-----------------------------|
|--2--5--6--7-------4--5--|--5-5-5-4-2---2-----------2--|
|--0--3--4--5----0--------|------------3-0----0-0-3--0--|
 Inject...
|-------------------------|-----------------------------|
|-------------------------|-----------------------------|
|-------------------------|-----------------------------|
|-----5--6--7-------5--6--|-----------------------------|
|--2--5--6--7-------4--5--|--5-5-5-4-2---2--------------|
|--0--3--4--5----0--------|------------3-0----0-0-3--0--|
 Inject... to verse:
|-------------------------|-------------------------|
|-------------------------|-------------------------|
|-------------------------|-------------------------|
|-----5--6--7-------5--6--|-------------------------|
|--2--5--6--7-------4--5--|--5-5-5-4-2---2----------|
|--0--3--4--5----0--------|------------3-0----------|

chord change after solo before chorus:
|-------------------------|-------------------------|
|-------------------------|-------------------------|
|-----5--6--7-------5--6--|-----5--6--7-------5--6--|
|-----4--5--7-------4--5--|-----4--5--7-------4--5--|
|--0--------0----0--------|--0--------0----0--------|
|-------------------------|-------------------------|
|-------------------------|-------------------------|
|-------------------------|-------------------------|
|-----5--6--7-------5--6--|-----5--6--7-------5--6--|
|-----4--5--7-------4--5--|-----4--5--7-------4--5--|
|--0--------0----0--------|--0--------0----0--------|
|-------------------------|-------------------------|
____________________________________________
5.Snowballed
 
AC/DC 
Snowballed 
 

 
(Malcolm Young, Angus Young & Brian Johnson) 
 
 Intro: 
|-------------------|------------------------|------------------------| 
|-------------------|------------------------|------------------------| 
|-------------------|------------------------|------------------------| 
|----------------7--|----7----------------7--|----7----------------7--| 
|----------------5--|----4----------------5--|----4----------------5--| 
|-------------------|-------0--0----0--0-----|-------0--0----0--0-----| 
 
|------------------------|-------------------------| 
|------------------------|-------------------------| 
|------------------------|-------------------------| 
|----7-------------------|----------------0-----7--| 
|----4----------------0--|-------0--1--2--------5--| 
|-------0--0----0--0-----|----3--------------0-----| 
 
 you could see... 
 
|------------3----2----|---------------------2--|----------3----2----| 
|------------3----3----|---------------------3--|----------3----3----| 
|----9--9----0----2----|--2-------2-------2--2--|----------0----2----| 
|----9--9----0----0----|--2-------2-------2--0--|----------0----0----| 
|----7--7--------------|--0-------0-------0-----|--------------------| 
|------------3---------|-------3-------3--------|----------3---------| 
 
 miles and miles... 
 
|---------------------2--|----------3----2----| 
|---------------------3--|----------3----3----| 
|--2-------2-------2--2--|----------0----2----| 
|--2-------2-------2--0--|----------0----0----| 
|--0-------0-------0-----|--------------------| 
|-------3-------3--------|----------3---------| 
 
 women drinkin'... 
 
|---------------------2--|----------3----2----| 
|---------------------3--|----------3----3----| 
|--2-------2-------2--2--|----------0----2----| 
|--2-------2-------2--0--|----------0----0----| 
|--0-------0-------0-----|--------------------| 
|-------3-------3--------|----------3---------| 
 
 I'm gonna make... 
 
|-----------------------|------------------| 
|-----------------------|------------------| 
|--2-------2-------2----|------------------| 
|--2-------2-------2----|------------------| 
|--0-------0-------0----|------------------| 
|-------3-------3-------|------------------| 
 
 snowballed 
 
|---------------------|--0-----------------------|---------------------|--0--------------------| 
|------------------3--|--------------------------|------------------3--|-----------------------| 
|-----2------2--4-----|-----4--2--0--2--0--------|-----2------2--4-----|-----4--2--0--2--------| 
|-----2---------------|--------------------2--0--|-----2---------------|--------------2--------| 
|-----0---------------|--------------------------|-----0---------------|--------------0--------| 
|--0------------------|--------------------------|--0------------------|-----------------------| 
 
|---------------------|--0-----------------------|------------------|-------------------| 
|------------------3--|--------------------------|------------------|-------------------| 
|-----2------2--4-----|-----4--2--0--2--0--------|-----2------------|-------------------| 
|-----2---------------|--------------------2--0--|-----2------------|----------------7--| 
|-----0---------------|--------------------------|-----0------------|----------------5--| 
|--0------------------|--------------------------|--0---------------|-------------------| 
 
 
_______________________________________________________ 

6.Evil Walks

Tuning:standard
Intro:
|--------------------|-----------------------|---------0------------|
|--------------------|--------------3-----2--|------2--0------------|
|--------------1--1--|---------4-------4--2--|------2---------1--1--|
|--------------2--2--|------2----------------|----------------2--2--|
|--------------2--2--|-----------------------|----------------2--2--|
|--------------0--0--|-----------------------|----------------0--0--|
 3rd time:
|-----------------------|-------------------|----------3--------2--|
|--------------3-----2--|--------0----------|-----3----3--------3--|
|---------4-------4--2--|--------0----------|--1--2----0--------2--|
|------2-------------2--|--------0----------|--2--0----0--------0--|
|--------------------0--|-------------------|--2-------2--------0--|
|-----------------------|--------3----------|--0--2----3-----------|
|-------------------|----------3--3----3--2--|------------------|
|--------2----------|-----3----3--3----3--3--|------------------|
|--------2----------|--1--2----0--0----0--2--|------------------|
|--------2----------|--2--0----0--0----0--0--|------------------|
|--------0----------|--2-------2--2----2--0--|------------------|
|-------------------|--0--2----3--3----3-----|------------------|
 Verse guitar 1:
|-----------------------------|-----------10--------------|
|-9-10--9----9----------------|---------------------------|
|----9--9----9--11----11---9--|--------9--------9------9--|
|-9-11--9----9--12----12--11--|----11--------------11--9--|
|-----------------------------|---------------------------|
|-----------------------------|---------------------------|
 Verse guitar 2:
|-------------------------|------------------------|
|---5--5----5--3----3--2--|----------3----2--------|
|-4-6--4----4--2----2--2--|----------2----2--------|
|----------------------2--|-------2--4----2--------|
|-------------------------|----4-------------4-----|
|-------------------------|---------------------0--|

________________________________________________________
7. C.O.D Care of The Devil 
Intro + Verse:
|--3----------------|-------------------|-------------------|------------------|
|--3----------------|----------------6--|----5--------------|------------------|
|--0----------------|----------------5--|----5--------------|------------------|
|--0----------------|----------------7--|----5--------------|------------------|
|-------------------|-------------------|-------------------|------------------|
|--3----------------|-------------------|-------------------|------------------|
|--3--------------3--|-------------------|-------------------|------------------|
|--3--------------3--|----------------6--|----5--------------|------------------|
|--0--------------0--|----------------5--|----5--------------|------------------|
|--0--------------0--|----------------7--|----5--------------|------------------|
|--------------------|-------------------|-------------------|------------------|
|--3--------------3--|-------------------|-------------------|------------------|
Chorus: C. O. D....
|-------------------|------------------------|----------------------|
|-------------------|---------------------6--|------6----6--5-------|
|----------------0--|--3--5--0--3----0----5--|------5----5--5----0--|
|----------------0--|--3--5--0--3----0----7--|------7----7--5----0--|
|-------------------|------------------------|----------------------|
|-------------------|------------------------|----------------------|
 C. O. D.... C. O. D....
|------------------------|----------------------|------------------------|
|---------------------6--|------6----6--5-------|---------------------6--|
|--3--5--0--3----0----5--|------5----5--5----0--|--3--5--0--3----0----5--|
|--3--5--0--3----0----7--|------7----7--5----0--|--3--5--0--3----0----7--|
|------------------------|----------------------|------------------------|
|------------------------|----------------------|------------------------|
|----------------------|----------------------|------------------|------------------|
|------6----6--5----3--|------3----3--1----5--|------------------|------------------|
|------5----5--5----3--|------3----3--2----5--|------------------|------------------|
|------7----7--5----3--|------3----3--3----5--|------------------|------------------|
|-------------------1--|------1----1--0----3--|------------------|------------------|
|----------------------|----------------------|------------------|------------------|
_____________________________________
8.Breaking The Rules
 Gtr I
 S E. +H. S E. +H. S E. +H. S E. +H Q
|---------------|---------------|---------------|-------------3--|
|-2-3--(3)------|-3-2--(2)------|-2-3--(3)------|-3-2--(2)----3--|
|-2-2--(2)------|-2-2--(2)------|-2-2--(2)------|-2-2--(2)----0--|
|-2-4--(4)------|-4-2--(2)------|-2-4--(4)------|-4-2--(2)----0--|
|-0-0--(0)------|-0-0--(0)------|-0-0--(0)------|-0-0--(0)-------|
|---------------|---------------|---------------|-------------3--|

 A D/A A
 S S S S S S S S S S S S S S E S E. +Q Q Q
|--------------------------------------------------------|--------------------------------|
|---------2--3-----3-----3-----3-----3-----3-------------|---3--2---(2)-------------------|
|---------2--2-----2-----2-----2-----2-----2-------------|---2--2---(2)-------------------|
|---------2--4-----4-----4-----4-----4-----4-------------|---4--2---(2)--2--2-------------|
|---------0--0-0-0-0-0-0-0-0-0-0-0---0---0-0-------------|---0--0---(0)--0--0-------------|
|--------------------------------------------------------|--------------------------------|
|
| Gtr III
| ~~~~~~~~~~~~~~~~~~~~~~~~~~~~~~ ~~~~
| a +H. +S S S a +S +Q +H S E +S
|--------------------------------------------------------|--------------------------------|
|---------------------------------------10---12b14==(12)-|-(12)----(12)-------15b17==(15)-|
|-12b14-(12)-----------------------(12)------------------|--------------------------------|
|--------------------------------------------------------|--------------------------------|
|--------------------------------------------------------|--------------------------------|
|--------------------------------------------------------|--------------------------------|

 D/A
 S E. Q S S E Q
|-----------------------------------------------------------|
|---2--3------3----------3---3---3--------------3-----------|
|---2--2------2----------2---2---2--------------2-----------|
|---2--4------4----------4---4---4--------------4-----------|
|---0--0------0----------0---0---0--------------0-----------|
|-----------------------------------------------------------|
|
| ~~~~~~
| +E E E. S +S s +T T S +E S S
|-----------------------------------------------------------|
|-(15)----13----------------17-----------------------15b17--|
|------------14--16b18-(16)----(16)pb18r16-14-(14)----------|
|-----------------------------------------------------------|
|-----------------------------------------------------------|
|-----------------------------------------------------------|

 A G5 Dadd11/F# E5
 S E. +Q S S S S S S E
|-----------------------------------------3----3---------3-------3-------||
|---3--2-----------------(2)--------------3--3-----------3----3----------||
|---2--2-----------------(2)--------------0--------------2---------------||
|---4--2-----------------(2)--------------0--------------0-----------2---||
|---0--0-----------------(0)-----------------------------------------2---||
|-----------------------------------------3--------------2-----------0---||
|
| ~~~~~~~~ ~~~~~~~~ ~~~~~~~~
| +E S a +S +E a +E +E. a +S +E +E
|---------15-------------------------------------------------------------||
|-(15)-------15b17-(15)-(15)-15b17-(15)-(15)-----15b17-(15)-(15)---(15)-||
|------------------------------------------------------------------------||
|------------------------------------------------------------------------||
|------------------------------------------------------------------------||
|------------------------------------------------------------------------||

 verse
 A/C# C5 C7
 S S S S Q S S S S Q
|---------------------------------|
|---------------------------------|
|-----------------5-5-5-----------|
|-7-7-7-----------5-5-5-----------|
|-4-4-4-----------3-3-3-----------|
|---------------------------------|
|
| Gtr II
| S S S S S S S S S S S S +E S S
|-5-5-5-----6-5---3-3-3-6-(6)-5---|
|-5-5-5-----6-5---5-5-5-5-(5)-5---|
|---------------------------------|
|---------------------------------|
|-4-4-4-----4-4-3-3-3-3-3-----3---|
|-------------------------------0-|

 G/B Bb5 Bb7 A/C# C5 C7
 S S S S Q S S S S Q S S S S Q S S S S Q
|---------------------------------|---------------------------------|
|---------------------------------|---------------------------------|
|-----------------3-3-3-----------|-----------------5-5-5-----------|
|-5-5-5-----------3-3-3-----------|-7-7-7-----------5-5-5-----------|
|-2-2-2-----------1-1-1-----------|-4-4-4-----------3-3-3-----------|
|---------------------------------|---------------------------------|
|
| S S S S S S S S S S S S +E S S S S S S S S S S S S S S +E S S
|-3-3-3-----4-3---1-1-1-4-(4)-3---|-5-5-5-----6-5---3-3-3-6-(6)-5---|
|-3-3-3-----4-3---3-3-3-3-(3)-3---|-5-5-5-----6-5---5-5-5-5-(5)-5---|
|---------------------------------|---------------------------------|
|---------------------------------|---------------------------------|
|-2-2-2-----2-2-1-1-1-1-1-(1)-1-0-|-4-4-4-----4-4-3-3-3-3-----------|
|---------------------------------|-------------------------------0-|

 G/B Bb5 Bb7 A/C# C5 C7
 Gtr I
 S S S S Q S S S S Q S S S S Q S S S S Q
 | | | | | | | | | | | |
 / / / / / / / / / / / /
 Gtr II
 S S S S S S S S S S S S +E S S S S S S S S S S S S S S +E S S
|-3-3-3-----4-3---1-1-1-4-(4)-3---|-5-5-5-----6-5---3-3-3-6-(6)-5---|
|-3-3-3-----4-3---3-3-3-3-(3)-3---|-5-5-5-----6-5---5-5-5-5-(5)-5---|
|---------------------------------|---------------------------------|
|---------------------------------|---------------------------------|
|-2-2-2-----2-2-1-1-1-1-1-(1)-1---|-4-4-4-----4-4-3-3-3-3-3---------|
|-------------------------------0-|-------------------------------0-|

 G/B Bb5 Bb7 A/C# C5 C7
 S S S S Q S S S S Q S S S S Q S S S S Q
 | | | | | | | | | | | |
 / / / / / / / / / / / /
 S S S S S S S S S S S S +E S S S S S S S S S S S S S S +E S S
|-3-3-3-----4-3---1-1-1-4-(4)-3---|-5-5-5-----6-5---3-3-3-6-(6)-5---|
|-3-3-3-----4-3---3-3-3-3-(3)-3---|-5-5-5-----6-5---5-5-5-5-(5)-5---|
|---------------------------------|---------------------------------|
|---------------------------------|---------------------------------|
|-2-2-2-----2-2-1-1-1-1-1-(1)-1-0-|-4-4-4-----4-4-3-3-3-3-----------|
|---------------------------------|-------------------------------0-|

 G/B Bb5 Bbsus4
 2/4 4/4
 Gtr I
 S S S S Q E S S S S S S S S S S S S S S
|-----------------|---------------------------------|
|-----------------|---------------------------------|
|-----------------|-3---3-----3-3-3-3-3-3-3-3-3-3-3-|
|-5-5-5-----------|-3---3-----3-3-3-3-3-3-3-3-3-3-3-|
|-2-2-2-----------|-1-1-1--1--1-1-1-1-1-1-1-1-1-1-1-|
|-----------------|---------------------------------|
|
| Gtr II
| S S S S S S S S E S S +S S E S E S Q
|-3-3-3-----4-3---|---------------------------------|
|-3-3-3-----4-3---|-3---4-(4)---4-----4-----4-------|
|-----------------|-3---3-(3)---3-----3-----3-------|
|-----------------|---------------------------------|
|-2-2-2-----2-2-1-|-1-1-1-(1)-1-1---1-1---1-1-------|
|-----------------|---------------------------------|

 Bb5 Bb
 S S S S S S S S S S S S S S S S
|-----------------------------------||
|-----------------------------------||
|-3-3-3-3-3-3-3-3-3-3-3-3-3-3-3-3---||
|-3-3-3-3-3-3-3-3-3-3-3-3-3-3-3-3---||
|-1-1-1-1-1-1-1-1-1-1-1-1-1-1-1-1---||
|-----------------------------------||
|
| S S S S S S S S S S S S S S S S
|-----------------------------------||
|-------------------3-3-3-3-3-3-3---||
|-3-3-3-3-3-3-3-3-3-3-3-3-3-3-3-3---||
|-3-3-3-3-3-3-3-3-3-3-3-3-3-3-3-3---||
|-1-1-1-1-1-1-1-1-1-1-1-1-1-1-1-1---||
|-----------------------------------||

 chorus
 A D/A A G5 Dadd11/F# A D/A
 Gtrs I, II
 S E. +H. S E. +Q S S S S S S E S E. +H.
|---------------|-----------3---3-3---3---|-------------|
|-2-3--(3)------|-3-2--(2)--3-3---3-3-----|-2-3--(3)----|
|-2-2--(2)------|-2-2--(2)--0-----2-------|-2-2--(2)----|
|-2-4--(4)------|-4-2--(2)--0-----0-------|-2-4--(4)----|
|-0-0--(0)------|-0-0--(0)----------------|-0-0--(0)----|
|---------------|-----------3-----2-----0-|-------------|

 2nd verse
 A G5 Dadd11E5# A/C# C5 C7
 Gtr I
 PM
 S E. +Q S S S S S S E S S S S Q S S S S E S S
|-----------3---3-3---3---||---------------------------------|
|-3-2--(2)--3-3---3-3-----||---------------------------------|
|-2-2--(2)--0-----2-------||-----------------5-5-5-----------|
|-4-2--(2)--0-----0-------||-7-7-7-----------5-5-5-----------|
|-0-0--(0)----------------||-4-4-4-----------3-3-3-------x---|
|-----------3-----2-----0-||-------------------------------0-|
|
| Gtr II
| W S S S S S S S S S S S S +E S S
|-------------------------||-5-5-5-----6-5---3-3-3-6-(6)-5---|
|-------------------------||-5-5-5-----6-5---5-5-5-5-(5)-5---|
|-------------------------||---------------------------------|
|-------------------------||---------------------------------|
|-------------------------||-4-4-4-----4-4-3-3-3-3-3-----3---|
|-------------------------||-------------------------------0-|

 G/B E Bb5 Bb7 E A/C# C5 C7 E
 Gtr I
 S S S S E S S S S S S E S S S S S S E S S S S S S E S S
 | | | | | | | | | | | | | | | | | | | | |
 / / / o / / / / / x o / / / x x / / / x o
 Gtr II
 S S S S S S S S S S S S +E S S S S S S S S S S S S S S +E S S
|-3-3-3-----4-3---1-1-1-4-(4)-3---|-5-5-5-----6-5---3-3-3-6-(6)-5---|
|-3-3-3-----4-3---3-3-3-3-(3)-3---|-5-5-5-----6-5---5-5-5-5-(5)-5---|
|---------------------------------|---------------------------------|
|---------------------------------|---------------------------------|
|-2-2-2-----2-2-1-1-1-1-1-(1)-1-0-|-4-4-4-----4-4-3-3-3-3-----------|
|---------------------------------|-------------------------------0-|

 G/B Bb5 Bb7 E A/C# C5 C7 E
 S S S S E E S S S S E S S S S S S E S S S S S S E S S
 | | | | | | | | | | | | | | | | | | | | | |
 / / / x / / / x x o / / / x x x / / / x x o
 S S S S S S S S S S S S +E S S S S S S S S S S S S S S +E S S
|-3-3-3-----4-3---1-1-1-4-(4)-3---|-5-5-5-----6-5---3-3-3-6-(6)-5---|
|-3-3-3-----4-3---3-3-3-3-(3)-3---|-5-5-5-----6-5---5-5-5-5-(5)-5---|
|---------------------------------|-------
Добавлено: 04.11.2013
Другие материалы по этой песне:
  • Текст (слова)

Страница создана 04.11.2013
http://primanota.ru/ac-dc/album-for-those-about-to-rock-lyrics.htm
Привет, Гость.
Предлагаем пройти революционный курс по гитаре.
Подарок от PrimaNota.Ru, забирай!