PrimaNota.ru - самый крупный в мире бесплатный архив песенных текстов, аккордов, табулатур и нот


AC/DC - ALBUM - Fly On The Wall - текст песни, видео

Регистрация Запомнить меня
Войти через:  Facebook Google Twitter Vk Yandex Mail.ru

AC/DC - ALBUM - Fly On The Wall - текст песни, видео

Печатать
Просмотров: 286
Уроки эстрадного вокала в Санкт-Петербурге
Fly on the wall
 Intro
 A A
 -------------------|
 ------2-----2------|
 ------2-----2------|
 ------2-----2------|
 ------0-3-2-0------|
 -------------------|
 A G D G A G D G A A x2
 ----------3-3-3--2-2-2--3-3-3----------3-3-3--2-2-2--3-3-3----------------|
 ---2-2-2--3-3-3--3-3-3--3-3-3---2-2-2--3-3-3--3-3-3--3-3-3---2-----2------|
 ---2-2-2--0-0-0--2-2-2--0-0-0---2-2-2--0-0-0--2-2-2--0-0-0---2-----2------|
 ---2-2-2--0-0-0--0-0-0--0-0-0---2-2-2--0-0-0--0-0-0--0-0-0---2-----2------|
 ---0-0-0------------------------0-0-0------------------------0-3-2-0------|
 ----------3-3-3---------3-3-3----------3-3-3---------3-3-3----------------|
 riff A
 ----------3-3-3--2-2-2--3-3-3-------------------|
 ---2-2-2--3-3-3--3-3-3--3-3-3--2-----2----------|
 ---2-2-2--0-0-0--2-2-2--0-0-0--2-----2----------|
 ---2-2-2--0-0-0--0-0-0--0-0-0--2-----2----------| x4
 ---0-0-0-----------------------0-3-2-0----------|
 ----------3-3-3---------3-3-3-------------------|
 Verse
 you can dance.....rock n roll music.....makin love.....
 -----------------------------------3-------------------------|
 -----------2-----------------------3-----------------2-------|
 -----------2-----------------------0-----------------2-------|
 -----------2-----------------------0-----------------2-------|
 -----------0-----------------------------------------0-------|
 -----------------------------------3-------------------------|
 lookin for dollars.....
 ---------------3----------------------------------------------|
 ---------------3----------------------------------------------|
 ---------------0----------------------------------------------|
 ---------------0----------------------------------------------|
 --------------------------------------------------------------|
 ---------------3----------------------------------------------|
 Pre-chorus
 its a game
 Riff B
 ------------------3-3-3--2-2-2--3-3-3------|
 -----------2-2-2--3-3-3--3-3-3--3-3-3------|
 -----------2-2-2--0-0-0--2-2-2--0-0-0------|
 -----------2-2-2--0-0-0--0-0-0--0-0-0------|
 -----------0-0-0---------------------------|
 ------------------3-3-3---------3-3-3------|
 too taght to tame
 riff B
 ends up the same
 riff B
 sweatin out the rain
 riff B
 Chorus
 I was trapped like a fly on the wall I was caged
 riff C
 -------------------3--2-----3----3---2----3-------------------------------|
 ---------------2---3--3-----3----3---3----3---------2----2----------------|
 ---------------2---0--2-----0----0---2----0---------2----2----------------|
 ---------------2---0--0-----0----0---0----0---------2----2----------------|
 ---------------0------------------------------------0----0----------------|
 -------------------3--------3----3--------3-------------------------------|
 like a zoo animal no escape
 riff C
 from the fate that you make your a snake
 riff C
 riff DI've had all I can take so watch out
 ----------3---2---3--3--2---3----------2----2----------------------|
 -----2----3---3---3--3--3---3----------3----3----------------------|
 -----2----0---2---0--0--2---0----------2----2----------------------|
 -----2----0---0---0--0--0---0----------0----0----------------------|
 -----0-------------------------------------------------------------|
 ----------3-------3--3------3--------------------------------------|
 riff B
 there's a fly on the wall

 Verse 2
 A G A
 take a chance.....rock n roll devil......like a bitch.....
 G
beating on my chest.....
 Play pre-chorus
 Play chorus
 riff A x2
 solo played with riff A x5 then Riff B 1 time
 Play Chorus
 ends in A chord

 Shake your foundations

 Riff A
 Malcolm play through intro and verse
 -----------------------------------------------3-----------------|
 --8---8---10-----10----8---10-----10---6---5---0---6---5---8-8---|
 --7---7---7------7-----7---7------7----7---5---0---7---5---7-7---|
 ----0---0----0-0----0-0--0----0-0----0---0---0---0---0---0-----0-|
 -----------------------------------------------------------------|
 -----------------------------------------------------------------|

 Riff B
 Angus
 U.B. U.B. U.B. U.B.
 -------------------------------------------------|
 --13---13---13---13--0-1-0-3-0--0-1-0-3-0------|
 --14---14---14---14--0-0-0-0-0--0-0-0-0-0------|
 -----------------------0-2-0-0-0--0-2-0-0-0------| x2
 -------------------------------------------------|
 -------------------------------------------------|
 Angus joins in on Riff A for verse
 all right.....all right
 -------3-------------3-----------|
 -------3-------------3-----------|
 -------0-------------0-----------|
 -------0-------------0-----------|
 ---------------------------------|
 -------3-------------3-----------|
 Chorus
 Riff C
 i-e-i-e-o shake your foundations
 -2-------3----2----------3--2--3----------------------|
 -3-------3----3----------3--3--3----------------------|
 -2-------0----2----------0--2--0----------------------|
 -0-------0----0----------0--0--0----------------------|
 ------------------------------------------------------|
 ---------3---------------3-----3----------------------|
 i-e-i-e-o shake it to the floor
 Riff C
 i-e-i-e-o shake your foundations
 Riff C
 i-e-i-e-o shake it
 -2-------3-------------3--------------------|
 -3-------3---6----5----3--------------------|
 -2-------0---7----5----0--------------------|
 -0-------0------0---0--0--------------------|
 --------------------------------------------|
 ---------3-------------3--------------------|
 Riff B x2
 Play verse
 Play chorus
 Solo
 U.B........................
 -------------------------------|
 ---10----8---7---10----8---7---|
 ---12---10---9---12---10---9---|
 -------------------------------|
 -------------------------------|
 -------------------------------|
 --------------------------------------------------------------|
 --------------------------------------------------------------|
 -5p0-5p0-5p0-5p0-7p0-7p0-7p0-7p0-5p0-5p0-5p0-5p0-7p0-7p0-7p0--|
 --------------------------------------------------------------|
 --------------------------------------------------------------|
 --------------------------------------------------------------|
 U.B...................
 -----------17--15---14-------15----------15---------------------15(17)----|
 --10--8-7--20--18---17----15(17)--13~-15(17)--13--15~--p13----------------|
 --12-10-9---------------------------------------------------14------------|
 --------------------------------------------------------------------------|
 --------------------------------------------------------------------------|
 --------------------------------------------------------------------------|
 Play chorus
 Outro solo
 -----------------------13------------------------------|
 --13(14)-13(14)-13(15)----13(15)~----------------------|
 -------------------------------------------------------|
 -------------------------------------------------------|
 -------------------------------------------------------|
 -------------------------------------------------------|
 --13(15)-13(15)-13(15)-17(19)-------------------------|
 ------------------------------------------------------|
 ------------------------------------------------------|
 ------------------------------------------------------|
 ------------------------------------------------------|
 ------------------------------------------------------|
 --10--13p10-13p10-13---------------|
 ------------------------------------|
 ------------------------------------|
 ------------------------------------|
 ------------------------------------|
 ------------------------------------|
 --15(17)-13----13 15-15-13-15--13(15)-15-13(15)--18(20-|
 ------------15-----------------------------------------|
 -------------------------------------------------------|
 -------------------------------------------------------|
 -------------------------------------------------------|
 -------------------------------------------------------|
 -------------------13--------13-----------------------------|
 --15-15(17)-13(15)----13(15)----13(15)-13(15)-13(15)-13(15)-|
 ------------------------------------------------------------|
 ------------------------------------------------------------|
 ------------------------------------------------------------|
 ------------------------------------------------------------|
 --20(22)----------------------|
 ---------18(20)~~~~-----------|
 ------------------------------|
 ------------------------------|
 ------------------------------|
 ------------------------------|

 First blood

 riff A
 ------------------|
 --2h3--3----------|
 --2----2----------|
 ------------------| x8
 ------------------|
 ------------------|

 riff B
 --------3--2-------------------------------|
 --------3--3--2--2h3--3--2h3--3------------|
 --0-2---0--2--2--2----2--2----2------------|
 --0-2---0--0--2----------------------------| x4
 --------------0----------------------------|
 --------3----------------------------------|

 riff C
 play through verse
 -------3--2----------|
 -------3--3--2-------|
 --0-2--0--2--2-------|
 --0-2--0--0--2-------|
 -------------0-------|
 -------3-------------|
 pre chorus
 come on baby......were gonna make it.....
 --3-3-3-3-3-3-3-3----------------------------------|
 --3-3-3-3-3-3-3-3----------------------------------|
 --0-0-0-0-0-0-0-0----------------------------------|
 --0-0-0-0-0-0-0-0------3-3-3-3-3-3-3-3-------------|
 -----------------------3-3-3-3-3-3-3-3-------------|
 --3-3-3-3-3-3-3-3------1-1-1-1-1-1-1-1-------------|
 chorus
 first blood..........
 ---3-----------------------------3----------------------------|
 ---3-----------------------------3----------------------------|
 ---0-----5---7--9--7--9----------0--5--7--9--7--9--11---------|
 ---0-----5---5--7--5--7---7--9---0--5--5--7--5--7---9---------| x2
 ---------3----------------5--7------3-------------------------|
 ---3-----------------------------3----------------------------|
 play verse
 play pre-chorus
 play chorus
 play solo
 repeat riffs to get through rest of song

 Danger

 Bass guitar intro
 don't talk to strangers.... x3
 --------------------------2-2-2--3-3-3--3-3-3--2-2-2----------------------|
 --------------------------3-3-3--3-3-3--3-3-3--3-3-3----------------------|
 --------------------------2-2-2--0-0-0--2-2-2--2-2-2----------------------|
 --------------------------0-0-0--0-0-0--0-0-0--0-0-0----------------------|
 --------------------------------------------------------------------------|
 ---------------------------------3-3-3------------------------------------|

 pick slide
 --2-2-2--3-3-3--------------------------------|
 --3-3-3--3-3-3--------------------------------|
 --2-2-2--0-0-0--------------------------------|
 --0-0-0--0-0-0--------------------------------|
 ----------------------------------------------|
 ---------3-3-3-------xxxxxxxx-----------------|
 chorus
 Angus
 riff A
 hold bend
 ---12(13)-12-12------3-1-3-0-3-5------------------------------|
 ---------------------3-1-3-0-3-5------------------------------|
 -----------------------------------12-14-14-14(16)------------|
 --------------------------------------------------------------|
 --------------------------------------------------------------|
 --------------------------------------------------------------|

 malcolm riff B
 ----------------------------------------------|
 ----------------------------------------------|
 -------------------------2-2-2----------------|
 ---2-2-2-----------------2-2-2----------------|
 ---2-2-2-----------------0-0-0----------------|
 ---0-0-0---3-1-3-0-3-5-----------3-5-3-5------|
 play these riffs to do the rest of the song

 Sink the pink

 riff A
 ------------------------3------------|
 ------------------------3------------|
 ---3--------------------0------------|
 ---3------3--3----------0------------|
 ---1--/5-----3------3----------------|
 -------------1--/5------3------------|

 angus riff G chord by malcom here| x2
 -7-8-10-10-8-7-------------------------------------------------------------|
 ----------------10-10-8-10-6-6-6-6-6-6-8-10-8-8-8-8-8-8-8-8-8-8-8-8-8-8----|
 ---------------------------------------------------------------------------|
 ---------------------------------------------------------------------------|
 ---------------------------------------------------------------------------|
 ---------------------------------------------------------------------------|
 verse riff B
 -----------------------------------------|
 --1-1-----------1-1-1--------------------|
 --0-0-0-0-0-0-0-0-0-0--------------------|
 -----------------------------------------| x8
 --3-3-2-2-3-3-2-3-3-3--------------------|
 -----------------------------------------|

 then play this
 -------------------|
 --1-1-1------------|
 --0-0-0------------|
 -------------------| x6
 --3-3-2------------|
 -------------------|

 then this
 ---------------------------------|
 ---------------------------------|
 --7-75--5/7--73----------------|
 --7-75--5/7--73----------------|
 --5-53--3/5--51----------------|
 ---------------------------------|
 chorus
 Play riff A
 play riff b x4

 now this
 riff C
 -------------------|
 --1-1--1-1---------|
 --0-0--0-0---------|
 -------------------| x4
 --3-3--2-2---------|
 -------------------|
 play riff B
 play riff c
 now this
 ---6-3----------------------------|
 -------3-6-5-3--------------------|
 -----------5-3--------------------|
 ---------------5------------------|
 ----------------------------------|
 ----------------------------------|

 repeat verse and chorus
 for solo play angus riff x2
 then this
 ----------------------------------------------------------------------------|
 -5-3(4)-5-3(4)-8(10)-5-3(4)-5-3(4)------5-3(4)-5-3(4)-8(10)-5-3(4)-5-3(4)-8-|
 -5-3(4)-5-3(4)-------5-3(4)-5-3(4)-5(7)-5-3(4)-5-3(4)-------5-3(4)-5-3(4)---|
 ----------------------------------------------------------------------------|
 ----------------------------------------------------------------------------|
 ----------------------------------------------------------------------------|
 8(10)-8---11(13)-13p11----------10------------------------------------------|
 -------11--------------11-13(15)---15r13-11---11(13)---11-10-9-13-11-13(15--|
 --------------------------------------------12-------12---------------------|
 ----------------------------------------------------------------------------|
 ----------------------------------------------------------------------------|
 ----------------------------------------------------------------------------|
 use the same riffs for the rest of the song

 Playing with girls

 oooohhhh
 E
 -----------------------------------------|
 -----------------------------------------|
 -----------------------------------------|
 -----------------------------------------| x4
 ---------------5p2---5p2---5p2---5p2-----|
 -------------------0-----0-----0-----0---|
 riff A
 guitar 1:play w/gtr 2
 -----------------------------------------|
 -----------------------------------------|
 -----------------------------------------|
 -----------------------------------------| x4
 -----------------------------------------|
 ----------7p0-0-5p0-0-3p0-0-5p0-0-3p0-0--|
 riff A1
 guitar 2
 -----------------------------------------|
 -----------------------------------------|
 -----------------------------------------|
 ----------9---7---5---7---5--------------| x4
 ----------9---7---5---7---5--------------|
 ----------7-0-5-0-3-0-5-0-3-0------------|
 guitar 1 
 -----------------------------------------|
 -----------------------------------------|
 -----------------------------------------|
 -----------------------------------------|
 ----------7p0-0-5p0-0-3p0-0-5p0-0-3p0-0--|
 -----------------------------------------|
 guitar 2
 -----------------------------------------|
 -----------------------------------------|
 ----------9---7---5---7---5--------------|
 ----------9---7---5---7---5--------------| x2
 ----------7-0-5-0-3-0-5-0-3-0------------|
 -----------------------------------------|
 play riff A and A1 x2
 now this
 ---3--3--3--3------|
 ---3--3--3--3------|
 ---0--0--0--0------|
 ---0--0--0--0------|
 -------------------|
 ---3--3--3--3------|
 repeat necessary chords
 pre- chorus
 ---3-------2--------------|
 ---3-------3--------------|
 ---0-------2--------------|
 ---0-------0--------------|
 --------------------------|
 ---3----------------------|
 chorus
 --------------------------|
 --------------------------|
 --------------------------|
 --------------------------| x4
 ---0-2-3-5-3-3-2----------|
 -----------------3-0------|
 repeat as necessary for song

 Stand up

 intro riff
 fade in slowly
 ---------------------------------|
 ---6-6-6--3-3-3-3-3--------------|
 ---------------------------------|
 ---5-5-5--5-5-5-5-5--------------| repeat as much as needed
 ---------------------------------|
 ---------------------------------|
 main riff
 ---------------------------------|
 ---3---3-3-3---------3-----------|
 ---2---2-2-2---------2-----------|
 ---0h3-3-3-0-3p0---0-------------|
 -----------------3---------------|
 ---------------------------------|
 play intro riff every couple of times
 chorus
 stand up..............
 ---2----3------|-----------------|
 ---3----3------|-----1-1---------|
 ---2----0------|-0-2-----2-0-----|
 ---0----0---0-3|-------------0-3-|
 ---------------|-----------------|
 --------3------|-----------------|
 use the chords and learn the solo
 Hell or highwater

 guitar 1
 -----------------------------|
 ---8-8-6-6-5-5-6-5-----------|
 ---5-5-5-5-5-5-5-5-----------|
 -----------------------------| x4
 -----------------------------|
 -----------------------------|
 played with guitar 2
 -----------------------------|
 ---10-10-8-8-7-7-8-7---------|
 ---7--7--7-7-7-7-7-7---------| x4
 -----------------------------|
 -----------------------------|
 guitar 2
 -----------------------------|
 ---2-2------------2-2--------|
 ---2-2------------2-2--------|
 ---2-2------------2-2--------|
 ---0-0------------0-0--------|
 -----------------------------|
 now this
 ----------------------------------------|
 ------------------10-10-9-9-9-9-10-9---|
 ---4-7-4--2---4---9--9--9-9-9-9-9--9---|
 ---4-7-4--2-2-4-------------------------|
 ---2-5-2--0-2-2-------------------------|
 ------------0---------------------------|
 use the same riffs for the rest

 Back in business

 intro riff
 ---------------------------|
 ---------------------------|
 ---7-5-7-5-7~-7------------|
 ---5-3-5-3-5~-5-7-5--------|
 ----------------5-3--------|
 ---------------------------|
 angus intro solo
 Q.B. R R '
 -----------------------------8(10)-(8)-8(10)-(8)--6--------|
 ---8(10)~~~~~~~~-8(9)-8(10)--------------------------------|
 -----------------------------------------------------------|
 -----------------------------------------------------------|
 -----------------------------------------------------------|
 -----------------------------------------------------------|
 play intro riff through verse than this
 --------------------------|
 --------------------------|
 ---7-5-7-9~---------------|
 ---5-3-5-7~-7-5-----------|
 ------------5-3-----------|
 --------------------------|
 then intro riff
 now this
 ---2-----------------------|
 ---3-----------------------|
 ---2-----------------------|
 ---0--7-5-7-7~-------------|
 ------5-3-5-5~-------------|
 ---------------------------|

 Send for the man

 intro riff
 ---2-------------------|
 ---3-------------------|
 ---2-------------------|
 ---0--3/5-3/5-3/5--3---|
 ------3/5-3/5-3/5--3---|
 ------1/3-1/3-1/3--1---|
 Angus
 just a little lust
 -------------------------8p7p5~~---|
 ------------------------------------|
 ------------------------------------|
 ------------------------------------|
 ------------------------------------|
 ------------------------------------|
 you want a bad reputation....
 ------------------------------------|
 ------------------------------------|
 ---7------5------3------------------|
 ---7---7--5---5--3---3--3-5--3-5----|
 ---5-5----3-3----1-1----3-5--3-5----|
 ------------------------1-3--1-3----|
 now this
 ---------------------|
 ---------------------|
 ---------------------|
 ---3-5--3-5--3-5-----|
 ---3-5--3-5--3-5-----|
 ---1-3--1-3--1-3-----|
 chorus
 Angus
 ------------|---------|
 ------------|--8(10)--|
 --12(14)----|---------|
 ------------|---------|
 ------------|---------|
 ------------|---------|
 igot the goods in my hand
 -----------------------|
 -----------------------|
 -----------------------|
 --9--11--------14--16--|
 -----------------------|
 -----------------------|
 your good enough to eat
 -----------------------|
 ---12/14---------------|
 -----------------------|
 -----------------------|
 ------------5---5---5--|
 -----------------------|
 sticky hot and sweet
 -------8-10--10---13--10-----|
 -----------------------------|
 -----------------------------|
 -----------------------------|
 -----------------------------|
 -----------------------------|
 Thats it!!!!!
 Legend
 U.B.=unison bend
 h=hammer-on
 p=pull-off
 H.B.=hold bend
 Q.B.=quick bend
 R=reverse bend
 / =slide forward/slide back
Марич Стас rocker@i.ua
Добавлено: 16.02.2014
Другие материалы по этой песне:
  • Текст (слова)

Страница создана 16.02.2014
http://primanota.ru/ac-dc/album-fly-on-wall-lyrics.htm
Привет, Гость.
Предлагаем пройти революционный курс по гитаре.
Подарок от PrimaNota.Ru, забирай!