PrimaNota.ru - самый крупный в мире бесплатный архив песенных текстов, аккордов, табулатур и нот


AC/DC - ALBUM - Flick Of The Switch - текст песни, видео

Регистрация Запомнить меня
Войти через:  Facebook Google Twitter Vk Yandex Mail.ru

AC/DC - ALBUM - Flick Of The Switch - текст песни, видео

Печатать
Просмотров: 173
Rising Power
E-----------------------------|
B-----------------------------|
G------4------4-4--2-2-----4--| Repeat Riff 
D------4------4-4--2-2--5--4--| x8
A--5p2-2--5p2-2-2--0-0--5--2--|
E-----------------------3-----|
(instead the 5p2 you can play D chord 
 without finger on 2 fret on 1st string)
Bridge 
 
E-----------------------------------------------------|
B-----------------------------------------------------|
G-4-4-2-4---------------------------------------------| 
D-4-4-2-4--4-4-2-4---------4--------------------------|x1 
A-2-2-0-2--4-4-2-4---------4repeat chord about 5 times|
E----------2-2-0-2---------2--------------------------|

Chorus
 G G
E-----------------|--------------------------|
B-----3-----------|-----3-------3------------|
G-4-2-2-4---2-----|-4-2-2-4---2-2------------| 
D-4-2-0-4-5-2-2---|-4-2-0-4-5-2-0------------| x2 
A-2-0---2-5-0-2---|-2-0---2-5-0--------------|
E---------3---0---|---------3----------------|
 Rising Power... Rising Power ... 
Solo:

Guitar 1 Malcolm

E--------|-----------|--------------|
B--------|-----------|--------------|
G--7--4--|--7--4--4--|-----------4--| Play this
D--7--4--|--7--4--4--|--7--7--5--4--| 3 times.
A--5--2--|--5--2--2--|--7--7--5--2--|
E--------|-----------|--5--5--3-----|
E--------|-----------|-------------------------|
B--------|-----------|-------------------------|
G--7--4--|--7--4--4--|--4-4-4-----------2-2-2--| 
D--7--4--|--7--4--4--|--4-4-4---5-5-5---2-2-2--| 
A--5--2--|--5--2--2--|--2-2-2---5-5-5---0-0-0--|
E--------|-----------|----------3-3-3----------|
E--------------------|-------------------------|
B----------3---------|-------------------------|
G----4--2--2--2------|--4-4-4-----------2-2----| Play this 
D----4--2--0--2------|--4-4-4---5-5-5---2-2----| 4 times.
A----2--0-----0------|--2-2-2---5-5-5---0-0----|
E--------------------|----------3-3-3----------|

Guitar 2 Angus

E-------------|-----------------------------|--------7--------------|
B-------------|-----------------------------|--10-10-----10-10------|
G--------7~~--|--------7--9--7-----7h9p7~~--|------------------7~~--|
D--7--9-------|--7--9-----------9-----------|-----------------------|
A-------------|-----------------------------|-----------------------|
E-------------|-----------------------------|-----------------------|
E--7--------------------|--7-7~~-------7-10-12h14----12-12----------|
B-----10----------------|---------7-10---------------------15-12~~--|
G---------7-------------|-------------------------------------------|
D------------9--7--9~~--|-------------------------------------------|
A-----------------------|-------------------------------------------|
E-----------------------|-------------------------------------------|
E--------------19-19----------|----------------------------------|
B--15-15-15-------------------|----------------------------------|
G--19-19-19-------------------|--9b--(bend it)-----9b--(11)--9---|
D-----------------------------|-----(slowly up)------------------|
A-----------------------------|-------(to 11)--------------------|
E-----------------------------|----------------------------------|
E----------------------|--------------------|-----------------------|
B----------------------|--------------------|----------12-12-12-12--|
G----------------------|--------------------|-----9-9---------------|
D--9--12--9--12---9~~--|---------9-9--12---|--12-------------------|
A----------------------|--12-12-------------|-----------------------|
E----------------------|--------------------|-----------------------|
E--10-------------|-------------------------------------------------|
B-----12-12~~----|--12-12------12------12------10------12------10--|
G-----------------|-----------------11------11--------------11------|
D-----------------|-------------------------------------------------|
A-----------------|-------------------------------------------------|
E-----------------|-------------------------------------------------|
E-----------------------|----------------------10----12----12-------|
B-----------------------|----------10----12-------------------------|
G--11-9-----------------|-----9-------------------------------------|
D-------12-9-9~~----12--|--12---------------------------------------|
A-----------------------|-------------------------------------------|
E-----------------------|-------------------------------------------|
E--14-17-14~~----|----19----19~~~~---------------------------------|
B-----------------|-------------------------------------------------|
G-----------------|-------------------------------------------------|
D-----------------|-------------------------------------------------|
A-----------------|-------------------------------------------------|
E-----------------|-------------------------------------------------|

 
Outro:
Guitar 1

E---------------------|-------------------------|
B----------3----------|-------------------------|
G----4--2--2--2--/----|--4-4-4-----------2-2----| Play this 
D----4--2--0--2--/----|--4-4-4---5-5-5---2-2----| 4 times.
A----2--0-----0--/----|--2-2-2---5-5-5---0-0----|
E---------------------|----------3-3-3----------|
E---------------------|-------------------------|
B---------------------|-------------------------|
G----------4----------|---------4---------------|
D----------4----------|---------4---------------|
A----------2----------|---------2---------------|
E---------------------|-------------------------|
Guitar 2

E--7-7----7-7-7----7-7-7----12--|--10-7------------7-7-7---10-14-7--|
B-------------------------------|-------10~~----10------------------|
G-------------------------------|-----------------------------------|
D-------------------------------|-----------------------------------|
A-------------------------------|-----------------------------------|
E-------------------------------|-----------------------------------|
E--10-7----7-------------7--7~~----|--7~~--10--12--14-14--14-14~~--|
B------------10-10----10------------|-------------------------------|
G-----------------------------------|-------------------------------|
D-----------------------------------|-------------------------------|
A-----------------------------------|-------------------------------|
E-----------------------------------|-------------------------------|
E--14--12--10--12--14----14--14p12p10------7~~--7~~------12--12~~---|
B-------------------------------------------------------------------|
G-------------------------------------------------------------------|
D-------------------------------------------------------------------|
A-------------------------------------------------------------------|
E-------------------------------------------------------------------|
E--10--7~~------7~~--|--7---------7----7---------------------------|
B---------------------|-----7--10----------7--10--7-----------------|
G---------------------|------------------------------9p7h9--7-------|
D---------------------|---------------------------------------------|
A---------------------|---------------------------------------------|
E---------------------|---------------------------------------------|

 This House Is On Fire

E---------------------------|
B---------------------------|
G----7------7------5-----5--| x4
D--5------5------5---5-8----|
A---------------------------|
E---------------------------|
Verse:
 
E---------------------------|
B---------------------------|
G----7------7------5-----5--| x6
D--5------5------5---5-8----|
A---------------------------|
E---------------------------|
Pre-Chorus:
E--2----3--2----3--2--|---------------------|
B--3----3--3----3--3--|---------------------|
G--2----2--2----2--2--|--2----3--2----3--2--|
D--0----0--0----0--0--|--3----3--3----3--3--|
A---------------------|--3----3--3----3--3--|
E---------------------|--1----1--1----1--1--|
Chorus:
E----------------------------|
B----------------------------|
G----------------3-3--5-5----| x4
D--5--5--5--5----3-3--5-5----|
A--5--5--5--5----1-1--3-3----|
E--3--3--3--3----------------|
 
Verse:
 
E---------------------------|
B---------------------------|
G----7------7------5-----5--| x6
D--5------5------5---5-8----|
A---------------------------|
E---------------------------|
Pre-Chorus:
E--2----3--2----3--2--|---------------------|
B--3----3--3----3--3--|---------------------|
G--2----2--2----2--2--|--2----3--2----3--2--|
D--0----0--0----0--0--|--3----3--3----3--3--|
A---------------------|--3----3--3----3--3--|
E---------------------|--1----1--1----1--1--|
Chorus:
E----------------------------|
B----------------------------|
G----------------3-3--5-5----| x4
D--5--5--5--5----3-3--5-5----|
A--5--5--5--5----1-1--3-3----|
E--3--3--3--3----------------|
Pre-Solo:
E----------------------------|
B----------------------------|
G--2-2-2--2-2-2--3-2----3-2--| x2
D--3-3-3--3-3-3--3-3----3-3--|
A--3-3-3--3-3-3--3-3----3-3--|
E--1-1-1--1-1-1--1-1----1-1--|
Solo:
Guitar 1
E----------------------------|
B----------------------------|
G----------------3----5------| x4
D--5--5--5--5----3----5------|
A--5--5--5--5----1----3------|
E--3--3--3--3----------------|
E--2----3--2----3--2--|---------------------|
B--3----3--3----3--3--|---------------------|
G--2----2--2----2--2--|--2----3--2----3--2--|
D--0----0--0----0--0--|--3----3--3----3--3--|
A---------------------|--3----3--3----3--3--|
E---------------------|--1----1--1----1--1--|
Guitar 2
E------------------------|-------------------------------------------|
B------------------------|--8----8---6-5------------------------6----|
G---------------------5--|---------7-----7-5-----5-------------------|
D--5~~----8-/10----8-----|-------------------8-----8-----------------|
A------------------------|-----------------------------8-------------|
E------------------------|-------------------------------------------|
E------------------------------|-------8--------10--10-10-10--13-10--|
B------------------------------|--8~~-----8~~------------------------|
G--7p5-------5~~----5-------5--|-------------------------------------|
D------8p5h8----------8p5-8----|-------------------------------------|
A------------------------------|-------------------------------------|
E------------------------------|-------------------------------------|
E-----------10-----------------------|--20-18------------------------|
B--13p11h13-------13p11-------13-11--|-----------20----18-20--20-18--|
G-----------------------12-----------|--------------19---------------|
D------------------------------------|-------------------------------|
A------------------------------------|-------------------------------|
E------------------------------------|-------------------------------|
E-----------22~~~~--\----------------------------------------------|
B--20p18-------------------------------------------------------------|
G--------------------------------------------------------------------|
D--------------------------------------------------------------------|
A--------------------------------------------------------------------|
E--------------------------------------------------------------------|
Chorus:
Guitar 1
E----------------------------| |--------------------------------|
B----------------------------| |--------------------------------|
G----------------3-3--5-5----| x8 |------2-------------------------|
D--5--5--5--5----3-3--5-5----| |------3--------5-----------5----|
A--5--5--5--5----1-1--3-3----| |------3--------5-----------5----|
E--3--3--3--3----------------| |------1--------3-----------3----| 
Guitar 2
E--10~~----10-----------------------|--15----15------15--15-15~~----|
B-------------11-8~~----11--b-(13)--|-----15------18-----------------|
G-----------------------------------|--------------------------------|
D-----------------------------------|--------------------------------|
A-----------------------------------|--------------------------------|
E-----------------------------------|--------------------------------|
E--15-------------------------------|--------15~~------15----15~~----|
B-----15-18-15----------------------|--18-18--------------18---------|
G--------------17----15---17-15~~--|--------------------------------|
D-----------------------------------|--------------------------------|
A-----------------------------------|--------------------------------|
E-----------------------------------|--------------------------------|
E-----------------------------------------------------------------|
B------------------------------------------------------------------|
G----------------7~~----5-----5-------------------------------------|
D--------------------------8-----8-5--------------------8b-(10)-r-8--|
A------------------------------------8p5-----------------------------|
E----------------------------------------8--6--3~~-------------------|

 Flick Of The Switch

 E|--------------------------------------------------------|
B|--------------------------------------------------------|
G|-2---5---7-----------------2---5---7===-----------------|
D|-2---5---7-----------------2---5---7===-----------------|
A|-0---3---5-----------2-3-2-0---3---5===-----------2-3-2-|
E|-------------1-2-3-4----------------------1-2-3-4-------|
main riff. (same as intro)
E|---------------------------|
B|---------------------------|
G|-2---5---7-----------------|
D|-2---5---7-----------------|
A|-0---3---5-----------2-3-2-|
E|-------------1-2-3-4-------|
repeat this for all verses.
pre-chorus.
E|----------------------------------|
B|----------------------------------|
G|-7========----0-----0-----0-----0-|
D|-7========----2-----2-----2-----2-|
A|-5========0-3---0-3---0-3---0-3---|
E|----------------------------------|
chorus.
E|--------------------------------------------------|
B|--------------------------------------------------|
G|--------------------------------------------7-8-7-|
D|-5-2--2----------------------5-2--2---------7-8-7-|
A|-3-0--0--0-3-5---5-3-5b5-3---3-0--0--0-3-5--5-6-5-|
E|--------------------------------------------------|
play this twice for the chorus
repeat the verse and chorus again
guitar solo.
guitar two will play the main riff over the solo
solo.
E|---------------------------------------------------|
B|--------------------7b--5--7-5---10~~~~~~~~10------|
G|----------7===-----------------7-------------------|
D|-7========------------------------------------10-7-|
A|--------------12----------------------------------|
E|---------------------------------------------------|
E|---------------------------------------|
B|-10---9-8-9-8-10p9p8------7--7----8b===|
G|---------------------7-10------7-------|
D|---------------------------------------|
A|---------------------------------------|
E|---------------------------------------|
E|----------------12/17-|
B|-8/10-8/10-8/13-------|
G|----------------------|
D|----------------------|
A|----------------------|
E|----------------------|
E|-17p15----17p15----17-15-----------------------|
B|-------17-------17-------17-15h17--15-13-15-10-|
G|-----------------------------------------------|
D|-----------------------------------------------|
A|-----------------------------------------------|
E|-----------------------------------------------|
E|-------22-------22--------------------------|
B|-24-24----24-24-------------10-10-10========|
G|--------------------------------------------|
D|--------------------------------------------|
A|-------------------5-5-5====----------------|
E|--------------------------------------------|

 Nervous Shakedown

 --------------------------------------------------------|
--------------------------------------------------------|
--6--4--2-----------------------------------------------|
--4--2--0------5--5--2----------------------------------|
---------------3--2--0------5--5--2---------------------|
----------------------------3--2--0---------------------|
--------------------------------------------------------|
--------------------------------3-3-3-------------------|
--------------------2-2-2-0-0-0-2-2-2-2-----------------|
--------------------2-2-2-0-0-0-0-0-0-2-----------------|
-2-2--2-2-2-2-2-----0-0-0-x-x-x-------0-----------------|
-0-3--0-0-0-3-0-----------3-3-3-------------------------|
-----------------------------------------------|
-----------------------------------------------|
--2----5---/7---------------------------------.|
--2----5---/7--0-2--------0-2---------0-2-----.|
--0----3---/5------3-0--------3-0---------3~~--|
-----------------------------------------------|
----------------------------------|
--------3----------------3--------|
--4--2--2--2--4----4--2--2--2--4--|
--4--2--0--2--4----4--2--0--2--4--|
--2--0-----0--2----2--0-----0--2--|
----------------------------------|
--------------------------------------------------------|
--------------------------------3-3-3-------------------|
--------------------2-2-2-0-0-0-2-2-2-2-----------------|
--------------------2-2-2-0-0-0-0-0-0-2-----------------|
-2-2--2-2-2-2-2-----0-0-0-x-x-x-------0-----------------|
-0-3--0-0-0-3-0-----------3-3-3-------------------------|
-----------------------------------------------|
-----------------------------------------------|
--2----5---/7---------------------------------.|
--2----5---/7--0-2--------0-2---------0-2-----.|
--0----3---/5------3-0--------3-0---------3~~--|
-----------------------------------------------|
----------------------------------|
--------3----------------3--------|
--4--2--2--2--4----4--2--2--2--4--|
--4--2--0--2--4----4--2--0--2--4--|
--2--0-----0--2----2--0-----0--2--|
----------------------------------|
--------------------------------------------------------|
--------------------------------3-3-3-------------------|
--------------------2-2-2-0-0-0-2-2-2-2-----------------|
--------------------2-2-2-0-0-0-0-0-0-2-----------------|
-2-2--2-2-2-2-2-----0-0-0-x-x-x-------0-----------------|
-0-3--0-0-0-3-0-----------3-3-3-------------------------|
Solo
-----------------------------------|
-----------------------------------|
-----------------------------------|
-------------------7b--------------|
--7~~~~~~~~~~~~~~------------------|
-----------------------------------|
-----------------------------------------------------------|
---------0-2-3b~~~~-3p2p0----------------------------------|
--2b--3-------------------3p2p0----------------------------|
--------------------------------3p2p0----------------------|
--------------------------------------3p2p0----------------|
---------------------------------------------7/------0-----|
-----------------------------17-15----17-15----17-15------|
---10-12-10-12-10-12-12~~~~--------17-------17-------17---|
----------------------------------------------------------|
----------------------------------------------------------|
----------------------------------------------------------|
----------------------------------------------------------|
--19--17-19-17-19-17-19-19~~~~-------------------------------------|
--------------------------------15-17-13----15-17-13----15-17-13---|
-----------------------------------------14---------14-------------|
-------------------------------------------------------------------|
-------------------------------------------------------------------|
-------------------------------------------------------------------|
--17-17-15-----------------------17-----17-----17-----17-----------|
-----------17-15-------------17b-----17b----17b----17b---17b-------|
-----------------17-14/--------------------------------------------|
-------------------------------------------------------------------|
-------------------------------------------------------------------|
-------------------------------------------------------------------|
--19-19~~~/--22b(24)-22-20----------------|
---------------------------22-20----------|
---------------------------------22-19/---|
------------------------------------------|
------------------------------------------|
------------------------------------------|

 Landslide

 ---------------------------------|
---------------------------------|
-------------5h6---7---5h6-------|
-------7-----5-----7---5---------|
A-3-0-0---0-0----0---0-----0-0---|
---------------------------------|
-------------3---2-----------|
-------------3---3-----------|
-------5-----0---2-----------|
-------5-----0---0-----------|
-3-0-0---0-0-2-----------0-0-|
-------------3---------------|
-3----------------0----------------|
-3----------------2----------------|
-0----------------2----------------|
-0----------------2----------------|
-2----------------0----------------|
-3---------------------------------|
-------------3---2--0-|
-------------3---3--2-|
-------5-----0---2--2-|
-------5-----0---0--2-|
-3-0-0---0-0-2------0-|
-------------3--------|
-----------------------------------------|
-----------------------------------------|
-7---7---7---7-------7---7---7---7-------|
-7---5---7---5-------7---5---7---5-------|
-5---3---5---3-------5---3---5---3-------|
-----------------------------------------|
-------------------------------|
-------------------------------|
-------------------------------|
-7-----5-----7-----5-----------|
-7-----5-----7-----5-----------|
---0-0---0-0---0-0---0-0-3--0--|
---------------------------------------0---3---2-----------|
---------------------------------------2---3---3-----------|
-------------5h6---7-----5h6-----------2---0---2-----------|
-------7-----5-----7-----5-------------2---0---0-----------|
-3-0-0---0-0-----0---0-------0-0-3-0-0-0---2-----------0-0-|
-------------------------------------------3---------------|

 Guns For Hire

 E|--------------------------|----------------------------------|
B|--------------------------|----------------------------------|
G|--------------------------|----------------------------------|
D|--2h-2h-2h-2h-2h-2h-2h-2p-|--0h2p0h2p0h2p0h2p0h2p0h2p0h2p0h2-|
A|--------------------------|----------------------------------|
E|--------------------------|----------------------------------|
 Riff:
|-----------------------|---------------------|-----------------------|
|-----------------------|---------------------|-----------------------|
|-----------------------|---------------------|-----------------------|
|--7--9------7----7--2--|----4----------------|--7--9------7----7--2--|
|--5--7------5----4--0--|----2------5----5----|--5--7------5----4--0--|
|-----------------------|-----------3----2----|-----------------------|
|---------------------|-----------------------|---------------------|
|---------------------|-----------------------|---------------------|
|---------------------|-----------------------|---------------------|
|----4----------------|--7--9------7----7--2--|----4----------------|
|----2------5----5----|--5--7------5----4--0--|----2------5----5----|
|-----------3----2----|-----------------------|-----------3----2----|
 the word...
|-----------------------|---------------------|-------------------|
|-----------------------|---------------------|-------------------|
|-----------------------|---------------------|--2----------------|
|--7--9------7----7--2--|----4----------------|--2----------------|
|--5--7------5----4--0--|----2------5----5----|--0----------------|
|-----------------------|-----------3----2----|-------------------|
|---------------------|-------------------|-----------------------|
|--3----------3--3----|-------------------|--3--3----3----3-------|
|--2----------0--2----|--2----------------|--0--2----0----2-------|
|--0----------0--0----|--2----------------|--0--0----0----0----2--|
|--0-------------0----|--0----------------|-----0---------0----0--|
|-------------3-------|-------------------|--3-------3------------|
I'm a real...
|-------------------|---------------------|-------------------|
|-------------------|--3----------3--3----|-------------------|
|--2----------------|--2----------0--2----|--2----------------|
|--2----------------|--0----------0--0----|--2----------------|
|--0----------------|--0-------------0----|--0----------------|
|-------------------|-------------3-------|-------------------|
 quick draw...
|-----------------------|-------------------|---------------------|
|--3--3----3----3-------|-------------------|--3----------3--3----|
|--0--2----0----2-------|--2----------------|--2----------0--2----|
|--0--0----0----0----2--|--2----------------|--0----------0--0----|
|-----0---------0----0--|--0----------------|--0-------------0----|
|--3-------3------------|-------------------|-------------3-------|
 you want...
|-------------------|-----------------------|-------------------|
|-------------------|--3--3----3----3-------|-------------------|
|--2----------------|--0--2----0----2-------|--2----------------|
|--2----------------|--0--0----0----0----2--|--2----------------|
|--0----------------|-----0---------0----0--|--0----------------|
|-------------------|--3-------3------------|-------------------|
|---------------------|-------------------|----------------------|
|--3----------3--3----|-------------------|--3--3----3----3------|
|--2----------0--2----|--2----------------|--0--2----0----2------|
|--0----------0--0----|--2----------------|--0--0----0----0------|
|--0-------------0----|--0----------------|-----0---------0------|
|-------------3-------|-------------------|--3-------3-----------|
 guns for hire shoot...
|-----------------------|---------------------|-----------------------|
|-----------------------|---------------------|-----------------------|
|-----------------------|---------------------|-----------------------|
|--7--9------7----7--2--|----4----------------|--7--9------7----7--2--|
|--5--7------5----4--0--|----2------5----5----|--5--7------5----4--0--|
|-----------------------|-----------3----2----|-----------------------|
 guns for hire
|---------------------|-----------------------|---------------------|
|---------------------|-----------------------|---------------------|
|---------------------|-----------------------|---------------------|
|----4----------------|--7--9------7----7--2--|----4----------------|
|----2------5----5----|--5--7------5----4--0--|----2------5----5----|
|-----------3----2----|-----------------------|-----------3----2----|
 shoot... to verse:
|-----------------------|---------------------|
|-----------------------|---------------------|
|-----------------------|---------------------|
|--7--9------7----7--2--|----4----------------|
|--5--7------5----4--0--|----2------5----5----|
|-----------------------|-----------3----2----|

 after 2nd chorus:
 desire...
|-----------------------|--------------------|--------------------|
|-----------------------|--------------------|--------------------|
|-----------------------|--------------------|--------------------|
|--7--9------7----7--2--|----4---------------|--------------------|
|--5--7------5----4--0--|----2------------5--|----7------------5--|
|-----------------------|-----------------3--|----5------------3--|
 to solo:
|--------------------|--------------------|-------------------|
|--------------------|--------------------|-------------------|
|--------------------|--------------------|-------------------|
|--------------------|--------------------|-------------------|
|----7------------5--|----7------------5--|----7--------------|
|----5------------3--|----5------------3--|----5--------------|

 Deep In The Hole

 E|---------------------|----------------------|
B|---------------------|----------------------|
G|-9---7------6---5----|9---7---6----5-5-5----|
D|-9---7---x--7---5---x|9---7---7----5-5-5----|
A|-7---5---x--4---3---x|7---5---4----3-3-3----|
E|---------------------|--------------------0-|
|----------------------|----------------------|
|----------------------|----------------------|
|-9---7---6----5-5-5---|-9---7---6----5-5-5---|
|-9---7---7----5-5-5---|-9---7---7----5-5-5---|
|-7---5---4----3-3-3---|-7---5---4----3-3-3---|
|---------------------0|---------------------0|
|----------------------|----------------------|----------------------|
|----------------------|--3---3---------------|----------------------|
|9---7---6----5-5-5----|--0---2---------------|5---2---2--5---2---2--|
|9---7---7----5-5-5----|--0---0---2-----------|5---2---2--5---2---2--|
|7---5---4----3-3-3----|------0---2-----------|3---0---0--3---0---0--|
|--------------------0-|--3-------0-----------|----------------------|
|----------------------|----------------------|----------------------|
|----3---3-------3-----|----------------------|----3---3-------3-----|
|0---2---2--0----2-----|5---2---2--5---2---2--|0---2---2--0----2-----|
|0---0---0--0----0--2--|5---2---2--5---2---2--|0---0---0--0----0--2--|
|----0---0-------0--0--|3---0---0--3---0---0--|----0---0-------0--0--|
|3----------3----------|----------------------|3----------3----------|
|----------------------|----------------------|----------------------|
|----------------------|----3---3-------3-----|----------------------|
|5---2---2--5---2---2--|0---2---2--0----2-----|5---2---2--5---2---2--|
|5---2---2--5---2---2--|0---0---0--0----0--2--|5---2---2--5---2---2--|
|3---0---0--3---0---0--|----0---0-------0--0--|3---0---0--3---0---0--|
|----------------------|3----------3----------|----------------------|
 to verse:
|----------------------|
|-----3---3-------3----|
|-0---2---2--0----2----|
|-0---0---0--0----0----|
|-----0---0-------0----|
|-3----------3---------|
|----------------------|-----------------------|
|----------------------|-----------------------|
|*9---7---6----5-5-5---|--9---7---6----5-5-5---|
|*9---7---7----5-5-5---|--9---7---7----5-5-5---|
|-7---5---4----3-3-3---|--7---5---4----3-3-3---|
|---------------------0|----------------------0|
|-------------------------|--------------------||
|-------------------------|--3---3-------------||
|--9---7---6----5-5-5-----|--0---2------------*||
|--9---7---7----5-5-5-----|--0---0---2--------*||
|--7---5---4----3-3-3-----|------0---2---------||
|----------------------0--|--3-------0---------||

 Bedlam In Belgium

 E|--------3--------||
B|-----3--3--3-----||
G|--2--2--0--2-----|| play 8 times
D|--2--0--0--0-----||
A|--0--------------||
E|-----------------||
Verse:
E|--------3--------||
B|-----3--3--3--3--||
G|--2--2--0--2--2--|| play 8 times
D|--2--0--0--0--0--||
A|--0--------------||
E|-----------------||
Pre Chourus:
E|-----------------||
B|--------------3--||
G|--5--------0--2--||
D|--5------0----0--||
A|--3----2---------||
E|-----------------||

E|--------3--------||
B|-----3--3--3--3--||
G|--2--2--0--2--2--|| play twice
D|--2--0--0--0--0--||
A|--0--------------||
E|-----------------||
E|----------------------------------||
B|-----------------------------3----||
G|--5----5-5-5-5-5-5--------0--2----||
D|--5----5-5-5-5-5-5------0----0----||
A|--3----3-3-3-3-3-3----2-----------||
E|----------------------------------||
E|--------3--------||
B|-----3--3--3--3--||
G|--2--2--0--2--2--|| play twice
D|--2--0--0--0--0--||
A|--0--------------||
E|-----------------||
E|----------------------------||
B|--3-------------------------||
G|--2-------------------------||
D|--0--play 14 times----------||
A|----------------------------||
E|----------------------------||
Chorus:
E|----------------------3---------||
B|-------------------3--3--3------|| play twice
G|--------7--5----2--2--0--2------||
D|--7--5--7--5----2--0--0--0------||
A|--7--5--5--3----0---------------||
E|--5--3--------------------------||
Then,play the verse and chorus again
Pre Solo:
E|------------------------3---------||
B|---------------------3--3--3------|| 
G|--------7--5------2--2--0--2------||
D|--7--5--7--5------2--0--0--0-x2---||
A|--7--5--5--3-x3---0---------------||
E|--5--3----------------------------||

 Badlands

 E|------------|-----------|------------------------------------|
B|------------|-----------|------------------------------------|
G|--0-5-0-3-0-|--G2-------|--0-5-0-3-0---0-5-0-3-0----------0--|
D|--0-5-0-3-0-|--REAPEATS-|--0-5-0-3-0---0-5-0-3-0-------------|
A|------------|--ON-INTRO-|-------------------------3---h5-----|
E|------------|-----------|------------------------------------|
PRE-CHORUS
E|------------------------|--------------------|----------------------|
B|------------------------|--------------------|----------------------|
G|---5---5-5-5-5--5-3-2-0-|--5--5-5-5-5--5-3-2-|--5--5-5-5-5--5-3-2-0-|
D|---5---5-5-5-5--5-3-2-0-|--5--5-5-5-5--5-3-2-|--5--5-5-5-5--5-3-2-0-|
A|------------------------|--------------------|----------------------|
E|------------------------|--------------------|----------------------|
E|---------------------------------|
B|---------------------------------|
G|--5--5-5-5-5--5-7--77777777777-7-|
D|--5--5-5-5-5--5-7--77777777777-7-|
A|---------------------------------|
E|---------------------------------|
CHORUS
SAME AS INTRO + VERSE

BEFORE SOLO 3X
E|--------------------------------------|---------------------------------|
B|--------------------------------------|---------------------------------|
G|--0-------3-3---3-5--5-5-5---3-3-3-3--|--0-------3-3--3-5--555555555555-|
D|--0-------3-3---3-5--5-5-5---3-3-3-3--|--0-------3-3--3-5--555555555555-|
A|--X-------1-1---1-3--3-3-3---1-1-1-1--|--X-------1-1--1-3--333333333333-|
E|--3--3-0------------------------------|--3--3-0-------------------------|

 Brain Shake

 |------------------|--------------------|--------------------|
B|------------------|------3-------------|------3-------------|
G|---------------2--|------2----------0--|------2----------2--|
D|---------------2--|------0----------0--|------0----------2--|
A|---------------0--|--------------------|-----------------0--|
E|------------------|-----------------3--|--------------------|
|-----------------------|--------------------------|--------------------|
|-------3---------------|--------------------------|------3-------------|
|-------2---------------|-----------------------2--|------2----------0--|
|-------0------5--5--5--|--5--4--2--0-----------2--|------0----------0--|
|-----------------------|--------------3--2--1--0--|--------------------|
|-----------------------|--------------------------|-----------------3--|
 
|---------------------|----------------------|--------------------------|
|-------3-------------|------3---------------|--------------------------|
|-------2----------2--|------2---------------|-----------------------2--|
|-------0----------2--|------0------5--5--5--|--5--4--2--0-----------2--|
|------------------0--|----------------------|--------------3--2--1--0--|
|---------------------|----------------------|--------------------------|
|-------------------|------------3--------|------------------|
|-------------------|------------3--3-----|------------------|
|-------------------|------------0--2--2--|------------------|
|-------------------|------------0--0--2--|------------------|
|-------------------|------------------0--|------------------|
|-------------------|------------3--------|------------------|
 
|-------------------------|------------------|------------3--------|
|-----------------3-------|------------------|------------3--3-----|
|-----0--0--0--0--2----2--|------------------|------------0--2--2--|
|-----0--0--0--0--0----2--|------------------|------------0--0--2--|
|----------------------0--|------------------|------------------0--|
|-----3--3--3--3----------|------------------|------------3--------|
 
|-------------------|------------------------|------------------|
|-------------------|----------------3-------|------------------|
|-------------------|----0--0--0--0--2----2--|------------------|
|-------------------|----0--0--0--0--0----2--|------------------|
|-------------------|---------------------0--|------------------|
|-------------------|----3--3--3--3----------|------------------|
|-------------------------|------------------|------------------------|
|-----------------3-------|------------------|----------------3-------|
|-----0--0--0--0--2----2--|------------------|----0--0--0--0--2----2--|
|-----0--0--0--0--0----2--|------------------|----0--0--0--0--0----2--|
|----------------------0--|------------------|---------------------0--|
|-----3--3--3--3----------|------------------|----3--3--3--3----------|
|-------------------|------------------------|------------------|
|-------------------|----------------3-------|------------------|
|-------------------|----0--0--0--0--2----2--|------------------|
|-------------------|----0--0--0--0--0----2--|------------------|
|-------------------|---------------------0--|------------------|
|-------------------|----3--3--3--3----------|------------------|
 
|-------------------------|---------------------|--------------------------|
|-------------------------|---------------------|--------------------------|
|-----0----0--0--0--0--1--|---------------------|-----------------------1--|
|-----0----0--0--0--0--2--|---------------------|-----------------------2--|
|----------------------2--|------------5--5--5--|--5--4--2--0-----------2--|
|-----3----3--3--3--3--0--|---------------------|--------------3--2--1--0--|
 
|----------------------|--------------------------|---------------------|
|----------------------|--------------------------|---------------------|
|----------------------|-----------------------1--|---------------------|
|----------------------|-----------------------2--|---------------------|
|-------------5--5--5--|--5--4--2--0-----------2--|------------5--5--5--|
|----------------------|--------------3--2--1--0--|---------------------|
 
|---------------------------|---------------------|--------------------------|
|---------------------------|---------------------|--------------------------|
|------------------------1--|---------------------|-----------------------2--|
|------------------------2--|---------------------|-----------------------2--|
|---5--4--2--0-----------2--|------------5--5--5--|--5--4--2--0-----------0--|
|---------------3--2--1--0--|---------------------|--------------3--2--1-----|
 
|---------------------|--------------------|----------------------|
|-------3-------------|------3-------------|------3---------------|
|-------2----------0--|------2----------2--|------2---------------|
|-------0----------0--|------0----------2--|------0------5--5--5--|
|---------------------|-----------------0--|----------------------|
|------------------3--|--------------------|----------------------|
 
|---------------------------|--------------------|--------------------|
|---------------------------|------3-------------|------3-------------|
|------------------------2--|------2----------0--|------2----------2--|
|---5--4--2--0-----------2--|------0----------0--|------0----------2--|
|---------------3--2--1--0--|--------------------|-----------------0--|
|---------------------------|-----------------3--|--------------------|
|-----------------------|--------------------------|------------------|
|-------3---------------|--------------------------|------------------|
|-------2---------------|-----------------------2--|------------------|
|-------0------5--5--5--|--5--4--2--0-----------2--|------------------|
|-----------------------|--------------3--2--1--0--|------------------|
|-----------------------|--------------------------|------------------|

 
|---------------------------|--------------------|--------------------|
|---------------------------|------3-------------|------3-------------|
|------------------------2--|------2----------0--|------2----------2--|
|---5--4--2--0-----------2--|------0----------0--|------0----------2--|
|---------------3--2--1--0--|--------------------|-----------------0--|
|---------------------------|-----------------3--|--------------------|
 
|---------------------|--------------------|--------------------|
|-------3-------------|------3----------3--|------3-------------|
|-------2----------0--|------2----------2--|------0----------5--|
|-------0----------0--|------0----------0--|------0----------5--|
|---------------------|--------------------|-----------------3--|
|------------------3--|--------------------|------3-------------|
 
|---------------------|--------------------|--------------------|
|-------3----------3--|------3-------------|------3-------------|
|-------0----------2--|------0----------5--|------0----------2--|
|-------0----------0--|------0----------5--|------0----------2--|
|---------------------|-----------------3--|-----------------0--|
|-------3-------------|------3-------------|------3-------------|
|---------------------|--------------------|--------------------|
|-------3-------------|------3-------------|------3-------------|
|-------2----------0--|------2----------2--|------2----------0--|
|-------0----------0--|------0----------2--|------0----------0--|
|---------------------|-----------------0--|--------------------|
|------------------3--|--------------------|-----------------3--|
|---------------------|---------------------|
|-------3-------------|---------------------|
|-------2-------------|---------------------|
|-------0----------2--|---------------------|
|------------------2--|------------5--5--5--|
|------------------0--|---------------------|
Марич Стас (rocker@i.ua)
Добавлено: 19.10.2013
Другие материалы по этой песне:
  • Текст (слова)

Страница создана 19.10.2013
http://primanota.ru/ac-dc/album-flick-of-switch-lyrics.htm
Привет, Гость.
Предлагаем пройти революционный курс по гитаре.
Подарок от PrimaNota.Ru, забирай!