PrimaNota.ru - самый крупный в мире бесплатный архив песенных текстов, аккордов, табулатур и нот


AC/DC - ALBUM - Dirty Deeds Done Dirt Cheap - текст песни, видео

Регистрация Запомнить меня
Войти через:  Facebook Google Twitter Vk Yandex Mail.ru

AC/DC - ALBUM - Dirty Deeds Done Dirt Cheap - текст песни, видео

Печатать
Просмотров: 212
Уроки эстрадного вокала в Санкт-Петербурге
Dirty Deeds......
 Intro Riff
 -----3---------------|
 -----3---------3-----|
 -----0----2----2-----|
 --2--0-2--2-2--0-2---|x4
 --2----2--0-2--0-2---|
 --0--3-0----0----0---|
 Verse Riff
 ---------------------|
 ---------------------|
 ---7/9--9------------|
 ---7/9--9------------|
 ---5/7--7------------|
 --------0------------|
 Pre-Chorus chords:
 E E E E E
 Chorus Riff
 -------3-------------------------|
 -------3-------------------------|
 --2--2-0-2---9--9-7-9------------|
 --2--2-0-2---9--9-7-9------------|
 --0--0---0---7--7-5-7------------|
 -------3-----0--0---0------------|
 Guitar solo
 --------------------------------7------------------------------|
 -------------------------10(12)--10p7-7-12-12-12-12-12-12-12---|
 --7-7----9(11)-9(11)-7-7---------------------------------------|
 ------9~---------------------------------9--9--9--9--9--9--9---|
 ---------------------------------------------------------------|
 ---------------------------------------------------------------|
 --7-10p7-9p7---------------------------|
 ------------10p7-9p7-------------------|
 --------------------7-7---------7(9)---|
 ---------------------9-9p7---9-9-------|
 ---------------------------9-----------|
 ---------------------------------------|
 e--7p4p0--x8 --8p5p0--x8 --9p6p0--x8 --10p7p0--x8 --11p8p0--x4
 e--12p9p0--x4 --13p10p0--x4 --14p11p0--x4 --15p12p0--x4 --16p13p0--x4
 e--17p14p0--x8 --17(19)~~~~~--

 Love At First Feel
 intro
E|-------------------------------------------------------|
B|---------------3------------------3------------------3-|
G|-2-------------2----2-------------2----2--------2----2-|
D|-2--------5----0----2--------5----0----2--------2----0-|
A|-0--------5---------0--------5---------0--------0------|
E|----------3------------------3-------------------------|
verse.
E|-----------------------------------|
B|-----------------------------------|
G|---9-9-----9-9-----7-7-------7---7-|
D|---9-9-----9-9-----7-7-------7---7-|
A|-7-----7-7-----5-5-----5-5-5---5---|
E|-0-----0-0-------------------------|

solo.
E|-------------------------------------------------------------|
B|-------------------------------------------------------------|
G|-------------------------------------------------------------|
D|-------------------------------------------------------------|
A|-0h2h3-0h2h3-0h2h3-0h2h3-0h2h3-0h2h3-0h2h3-0h2h3-0h3h5-0h3h5-|
E|-------------------------------------------------------------|
E|-------------------------------------------------------------|
B|-------------------------------------------------------------|
G|-------------------------------------------------------------|
D|-------------------------------------------------------------|
A|-0h3h5-0h3h5-0h3h5-0h3h5-0h3h5-0h3h5-0h5h7-0h5h7-0h5h7-0h5h7-|
E|-------------------------------------------------------------|
E|-------------------------------------------------------------|
B|-------------------------------------------------------------|
G|-------------------------------------------------------------|
D|-------------------------------------------------------------|
A|-0h5h7-0h5h7-0h5h7-0h5h7-0h7h9-0h7h9-0h7h9-0h7h9-0h7h9-0h7h9-|
E|-------------------------------------------------------------|
E|-------------12-12-11b12-11b12-11b12-16b17-15p12h17===12-|
B|----------------------------------------------------------|
G|----------------------------------------------------------|
D|----------------------------------------------------------|
A|-0h7h9-0h7h9----------------------------------------------|
E|----------------------------------------------------------|
E|------------------------------------------------------|
B|-12-10-10-12-10-8-8-8---12p10h12p10-11p9h11p9-9p7h9p7-|
G|------------------------------------------------------|
D|------------------------------------------------------|
A|------------------------------------------------------|
E|------------------------------------------------------|
E|---------------------17-17---17-17-17---17-17-17---17-17-|
B|-7p5h7p5-5p3h5p3-2-0-------------------------------------|
G|---------------------------------------------------------|
D|---------------------------------------------------------|
A|---------------------------------------------------------|
E|---------------------------------------------------------|

 Big Balls
 Riff A1(Angus)
 -----------------------|
 -----------------------|
 -----------------------|
 --6--6-5-4-2--2-4-5----|x4
 --7--7-6-5-3--3-5-6----|
 -----------------------|
 Riff A2(Malcolm)
 -----------------------|
 -----------------------|
 --9--------5-----------|
 --9--------5-----------|x4
 --7--------3-----------|
 -----------------------|
 Angus
 --2-2-2-2-2---|
 --0-0-0-0-0---|
 --2-2-2-2-2---|
 --1-1-1-1-1---|
 --2-2-2-2-2---|
 --------------|
 Malcolm
 --------------|
 --------------|
 --4-4-4-4-4---|
 --4-4-4-4-4---|
 --2-2-2-2-2---|
 --------------|
 Play Riff A2 x4
 Chorus(Angus)
 ------------------------|
 --9-9-9-9-4-5-5-5-5-8---|
 --9-9-9-9-5-6-6-6-6-8---|
 --9-9-9-9-5-6-6-6-6-8---|repeat as neccesary
 --7-7-7-7-3-4-4-4-4-6---|
 ------------------------|
 Malcolm
 ------------------------|
 --9---------5-----------|
 --9---------6-----------|
 --9---------6-----------|repeat as neccesary
 --7---------4-----------|
 ------------------------|
 We've got the biggest balls of them all
 ------------------------------------------|
 ------------------------------------------|
 ---5-------------7-------2----2-------4---|
 ---5-------------7-------2----2-------4---|
 ---3-------------5-------0----0-------2---|
 ------------------------------------------|
 Rocker
 {}=Rythym Figure 1
 Riff A
 {----------------|
 ----------------|
 ----------------|
 --0h2-2-4-2-4---|x4
 --0---0-0-0-0---|
 ----------------|
 Riff B
 ----------------|
 ----------------|
 --0h2-2-4-2-4---|
 --0---0-0-0-0---|x2
 ----------------|
 ----------------|
 Play Riff A x2
 Riff C
 ----------------|
 ----------------|
 ----------------|
 ----------------|x2
 --0h2-2-4-2-4---|
 --0---0-0-0-0---|
 Play Riff A x2 }

 ------|
 ------|
 --2---|
 --2---|x4
 --0---|
 ------|
 Play Ryhthm Figure 1 from Riff B

 Problem Child
 Riff A
 --------------3---|
 --3---------3-3---|
 --2-2--x-x--2-0---|
 --0-2--x-x--0-0---|x8
 ----0--x-x--------|
 --------------3---|
 --3-3-----|
 --3-3-3---|
 --0-0-2---|
 --0-0-0---|x3
 ----------|
 --3-3-----|
 ----------|
 ----------|
 --2-2-----|
 --2-2-2---|x4
 --0-0-2---|
 ------0---|
 --3-------------------3-------------3-------------|
 --3-------3-------3---3-------3-----3-------3-----|
 --0-2---5-2---2-5-2---0-2--5--2---2-0-------2-2---|
 --0-2---5-0---2-5-0---0-2--5--0---2-0-2--2--0-2---|
 ----0---3-----0-3-------0--3----3-0---2--2----0---|
 --3-------------------3-------------3-0--0--------|

 There's Gonna Be Some Rockin'

 Intro)
E|------------------------|-----------------------|-----------------------|
B|--3--3--3----3----3--3--|----3--3----3----3--3--|----3--3----3----3--3--|
G|--2--2--4----2----4--2--|----2--4----2----4--2--|----2--4----2----4--2--|
D|--0--0--0----0----0--0--|----0--0----0----0--0--|----0--0----0----0--0--|
A|--5--5--5----5----5--5--|----5--5----5----5--5--|----5--5----5----5--5--|
E|------------------------|-----------------------|-----------------------|
E|------------------------|-----------------------|-----------------------|
B|------------------------|-----------------------|-----------------------|
G|--------7----7----------|----7--7----7----------|----7--7----7----------|
D|--------7----7----3--4--|----7--7----7----3--4--|----7--7----7----3--4--|
A|--5--5------------------|-----------------------|-----------------------|
E|------------------------|-----------------------|-----------------------|
(Verse)
|-----------------------|-----------------------|-----------------------|
|----3--3----3----3--3--|----3--3----3----3--3--|----3--3----3----3--3--|
|----2--4----2----4--2--|----2--4----2----4--2--|----2--4----2----4--2--|
|----0--0----0----0--0--|----0--0----0----0--0--|----0--0----0----0--0--|
|----5--5----5----5--5--|----5--5----5----5--5--|----5--5----5----5--5--|
|-----------------------|-----------------------|-----------------------|
|-----------------------|-----------------------|-----------------------|
|-----------------------|-----------------------|-----------------------|
|----7--7----7----------|----7--7----7----------|----7--7----7----------|
|----7--7----7----3--4--|----7--7----7----3--4--|----7--7----7----3--4--|
|-----------------------|-----------------------|-----------------------|
|-----------------------|-----------------------|-----------------------|
|-----------------------|----------------------|------------------------|
|----3--3----3----3--3--|----3--3----3----3--3-|------------------------|
|----2--4----2----4--2--|----2--4----2----4--2-|------------------------|
|----0--0----0----0--0--|----0--0----0----0--0-|--5--5--5----5----5--5--|
|----5--5----5----5--5--|----5--5----5----5--5-|--5--5--7----5----7--5--|
|-----------------------|----------------------|--3--3--3----3----3--3--|
|-----------------------|----------------------|------------------------|
|-----------------------|----------------------|------------------------|
|----7--7----7----------|----7--7----7---------|------------------------|
|----7--7----7----3--4--|----7--7----7---------|-----5--5----5----------|
|-----------------------|-----------------1--2-|-----5--5----5----1--2--|
|-----------------------|----------------------|-----3--3----3----------|
|-----------------------|----------------------|------------------------|
|-----------------------|--3--3--3----3----3--3|----3--3----3----3--3---|
|-----------------------|--2--2--4----2----4--2|----2--4----2----4--2---|
|----5--5----5----5--5--|--0--0--0----0----0--0|----0--0----0----0--0---|
|----5--7----5----7--5--|--5--5--5----5----5--5|----5--5----5----5--5---|
|----3--3----3----3--3--|----------------------|------------------------|
|-----------------------|----------------------|------------------------|
|-----------------------|----------------------|------------------------|
|-----------------------|-----7--7----7--------|----7--7----7-----------|
|----5--5----5----3--4--|-----7--7----7----3--4|----7--7----7----3--4---|
|----5--5----5----------|----------------------|------------------------|
|----3--3----3----------|----------------------|------------------------|
|-----------------------|----------------------|------------------------|
|-----------------------|----------------------|--3--3--3----3----3--3--|
|--2--2--2----2----2----|----------------------|--2--2--4----2----4--2--|
|--2--2--4----2----4--5-|----5--5----5----5--5-|--0--0--0----0----0--0--|
|--0--0--0----0----0--5-|----5--7----5----7--5-|--5--5--5----5----5--5--|
|---------------------3-|----3--3----3----3--3-|------------------------|
|-----------------------|----------------------|------------------------|
|-----------------------|----------------------|------------------------|
|-----2--2----2---------|----------------------|-----7--7----7----------|
|-----2--2----2---------|----5--5----5----3--4-|-----7--7----7----3--4--|
|-----0--0----0----3--4-|----5--5----5---------|------------------------|
|-----------------------|----3--3----3---------|------------------------|
|-----------------------|----------------------|------------------------|
|----3--3----3----3-----|--3-------------------|--3---------------------|
|----2--4----2----4-----|--2-------------------|--2---------------------|
|----0--0----0----0-----|--0-------------------|--0---------------------|
|----5--5----5----5-----|----------------------|------------------------|
|-----------------------|----------------------|------------------------|
|-----------------------|----------------------|------------------------|
|-----------------------|--3-------------------|--3---------------------|
|----7--7----7----------|--2-------------------|--2---------------------|
|----7--7----7----3--4--|--0-------------------|--0---------------------|
|-----------------------|----------------------|------------------------|
|-----------------------|----------------------|------------------------|
|-----------------------|----------------------|------------------------|
|--3--------------------|--3-------------------|------------------------|
|--2--------------------|--2-------------------|------------------------|
|--0--------------------|--0-------------------|--5--5--5----5----5--5--|
|-----------------------|-------2----3----4----|--5--5--7----5----7--5--|
|-----------------------|-------0----1----2----|--3--3--3----3----3--3--|
|-----------------------|----------------------|------------------------|
|--3--------------------|--3-------------------|------------------------|
|--2--------------------|--2-------------------|------------------------|
|--0--------------------|--0-------------------|-----5--5----5----------|
|-----------------------|-------2----3----4----|-----5--5----5----1--2--|
|-----------------------|-------0----1----2----|-----3--3----3----------|
|-----------------------|------------------------|-----------------------|
|-----------------------|--3--3--3----3----3--3--|----3--3----3----3--3--|
|-----------------------|--2--2--4----2----4--2--|----2--4----2----4--2--|
|----5--5----5----5--5--|--0--0--0----0----0--0--|----0--0----0----0--0--|
|----5--7----5----7--5--|--5--5--5----5----5--5--|----5--5----5----5--5--|
|----3--3----3----3--3--|------------------------|-----------------------|
|-----------------------|------------------------|-----------------------|
|-----------------------|------------------------|-----------------------|
|-----------------------|-----7--7----7----------|----7--7----7----------|
|----5--5----5----3--4--|-----7--7----7----3--4--|----7--7----7----3--4--|
|----5--5----5----------|------------------------|-----------------------|
|----3--3----3----------|------------------------|-----------------------|
|-----------------------|-----------------------|------------------------|
|-----------------------|-----------------------|--3--3--3----3----3--3--|
|--2--2--2----2----2----|-----------------------|--2--2--4----2----4--2--|
|--2--2--4----2----4--5-|----5--5----5----5--5--|--0--0--0----0----0--0--|
|--0--0--0----0----0--5-|----5--7----5----7--5--|--5--5--5----5----5--5--|
|---------------------3-|----3--3----3----3--3--|------------------------|
|-----------------------|-----------------------|------------------------|
|-----------------------|-----------------------|------------------------|
|-----2--2----2---------|-----------------------|-----7--7----7----------|
|-----2--2----2---------|----5--5----5----3--4--|-----7--7----7----3--4--|
|-----0--0----0----3--4-|----5--5----5----------|------------------------|
|-----------------------|----3--3----3----------|------------------------|
 go on with verse
|-----------------------|
|----3--3----3----3-----|
|----2--4----2----4-----|
|----0--0----0----0-----|
|----5--5----5----5-----|
|-----------------------|
|-----------------------|
|-----------------------|
|----7--7----7----------|
|----7--7----7----3--4--|
|-----------------------|
|-----------------------|
 Aint No Fun(Waitin Round To Be A Millionaire)
 |-----------|------|------------------|-------------------|
 |-3-------3-|------|------------------|-----------------------|
 |-2-------2-|------|------0-----0---0-|---0-0----0---0--------|
 |-0---3h4-0-|------|---0--------------|-----------------------|
 |-----------|------|--------0-----2---|-3-----2---------------|
 |-----------|------|-3----------------|------------3----------|
	|
	| guitar 2
	| Rhythm fig 1a
	|-----------|------|------------------|-----------------|
	|-3-------3-|------|------------------|-----------------|
	|-2-------2-|------|------------------|----------------.|
	|-0---3-4-0-|------|------------------|----------------.|
	|-----------|------|-5------0-----2---|-3-----2---------|
	|-----------|------|-3----------------|------------3----|
 guitar 1
	 D
	 Rhythm fig 2 2
|-----------------|-----------------|-----------------|-------------------|
|-----------------|-----------------|-----------------|-------------------|
|-2-2-4---2---4-2-|-2-2-4---2---4-2-|-2-2-4---2---4-2-|-2-2-4---2---4-2---|
|-0-0-0---0---0-0-|-0-0-0---0---0-0-|-0-0-0---0---0-0-|-0-0-0---0---0-0---|
|-----------------|-----------------|-----------------|-------------------|
|-----------------|-----------------|-----------------|-------------------|
	|
	| guitar 2
	| Rhythm fig 2a
|-----------------|-----------------|-----------------|-------------------|
|-3---------------|---------------2-|---3-----3-------|---3-----3---------|
|-2---------------|---------------0-|---2-----2-----2-|---2-----2-----2---|
|-0---------------|-----------------|-----0-0---0-0-0-|-----0-0---0-0-0---|
|-----------------|-----------------|-----------------|-------------------|
|-----------------|-----------------|-----------------|-------------------|
	Rhythm fig 2 - 29 1/2 times
	Chorus (Start)
 guitar 1
	 D
 |-3---------------|-----------------|------------------|-------------|
 |-3---------------|-----------------|------------------|-------------|
 |-0---------------|-----------------|------0-----0---0-|---0-0----0--|
 |-0---------------|-----------------|---0--------------|-------------|
 |-----------------|-----------------|--------0-----2---|-3-----2-----|
 |-3---------------|-----------------|-3----------------|-------------|
	|
	| guitar 2
	|
 |-3---------------|-----------------|------------------|-------------|
 |-3---------------|-----------------|------------------|-------------|
 |-0---------------|-----------------|------------------|-------------|
 |-0---------------|-----------------|------------------|-------------|
 |-----------------|-----------------|-5------0-----2---|-3-----2-----|
 |-3---------------|-----------------|-3----------------|-------------|
	Rhythm fig 2 and 2a - 2x
	Chorus (end)
	Play the chorus 3 more times (4 total)
 guitar 1
	 D
	|-------------------|-------------------|-3-----------3-3-|-3------|
	|-------------------|-------------------|-3-----------3-3-|-0------|
	|---2-4---2-----2---|---2-4---2-----2---|-0-----------0-0-|-0------|
	|---0-0---0-----0---|---0-0---0-----0---|-0-----------0-0-|-0------|
	|-------------------|-------------------|-----------------|--------|
	|-------------------|-------------------|-3-----------3-3-|-3------|
	|
	| guitar 2
 |-------------------|-------------------|-3-----------3-3-|-3-----------|
 |---3-----3-----3---|---3-----3-----3---|-3-----------3-3-|-3-----------|
 |---2-----2-----2---|---2-----2-----2---|-0-----------0-0-|-0-----------|
 -----0-0-------0---|-----0-0-------0---|-0-----------0-0-|-0--------|
 -------------------|-------------------|-----------------|----------|
 -----------------0-|-----------------0-|-3-----------3-3-|-3------------|
	Rhythm fig 1 and 1a - 2x
	Faster
	Rhythm fig 1 and 1a - 2x
	Rhythm fig 1 and 1a - 43x (5 times)
 Ride On
 Intro:
E--0--1--|--0--1--|--0--1--|--0--1--|
B--1--1--|--1--1--|--1--1--|--1--1--|
G--0--2--|--0--2--|--0--2--|--0--2--|
D--2--3--|--2--3--|--2--3--|--2--3--|
A--3--3--|--3--3--|--3--3--|--3--3--|
E--------|--------|--------|--------|
Verse: Play this pattern 2 times.
E--0--1--|--0--1--|--1-----|--1-----|
B--1--1--|--1--1--|--1--3--|--1--3--|
G--0--2--|--0--2--|--2--3--|--2--3--|
D--2--3--|--2--3--|--3--3--|--3--3--|
A--3--3--|--3--3--|--3--1--|--3--1--|
E--------|--------|--------|--------|
E--------|-----1--|--0--1--|--0--1--|
B-----5--|--3--1--|--1--1--|--1--1--|
G--4--5--|--3--2--|--0--2--|--0--2--|
D--5--5--|--3--3--|--2--3--|--2--3--|
A--5--3--|--1--3--|--3--3--|--3--3--|
E--3-----|--------|--------|--------|
Pre-Chorus:
E----------|----------|----------|----------|
B----------|----------|----------|----------|
G----------|----------|----------|----------|
D-------3~-|-------3~-|-------4~-|-------4~-|
A----------|----------|----------|----------|
E-1-1-1----|-1-1-1----|-2-2-2----|-2-2-2----|
E---------------------------------|
B---------------------------------|
G---------------------------------|
D--5-5-5--5-5-5--5-5-5--5-5-5--5--|
A--5-5-5--5-5-5--5-5-5--5-5-5--5--|
E--3-3-3--3-3-3--3-3-3--3-3-3--3--|
Chorus:
E--1--0--|--0--3--|--1--0--|-----1--|
B--1--1--|--1--3--|--1--1--|--3--1--|
G--2--0--|--0--0--|--2--0--|--3--2--|
D--3--2--|--2--0--|--3--2--|--3--3--|
A--3--3--|--3--2--|--3--3--|--1--3--|
E--1-----|-----3--|--1-----|-----1--|
E--1--0--|--0--3--|--------------------------|
B--1--1--|--1--3--|--------------------------|
G--2--0--|--0--0--|--------------------------|
D--3--2--|--2--0--|--5--3-3-3--3-3-3--3-3-3--|
A--3--3--|--3--2--|--5--3-3-3--3-3-3--3-3-3--|
E--1-----|-----3--|--3--1-1-1--1-1-1--1-1-1--|
E-------------------------------------|
B-------------------------------------|
G-------------------------------------|
D--3-3-3--3-3-3--3-3-3--3-3-3--3-3-3--|
A--3-3-3--3-3-3--3-3-3--3-3-3--3-3-3--|
E--1-1-1--1-1-1--1-1-1--1-1-1--1-1-1--|
Small Solo:
Guitar 1
E--0--1--|--0--1--|--0--1--|--0--1--|
B--1--1--|--1--1--|--1--1--|--1--1--|
G--0--2--|--0--2--|--0--2--|--0--2--|
D--2--3--|--2--3--|--2--3--|--2--3--|
A--3--3--|--3--3--|--3--3--|--3--3--|
E--------|--------|--------|--------|
Guitar 2
E-13b-------|------------15-|----------------|
B-----16-13-|-16b-16-16b----|-16-------------|
G-----------|---------------|----15-17-15-17-|
D-----------|---------------|----------------|
A-----------|---------------|----------------|
E-----------|---------------|----------------|
E-------|----|
B-------|----|
G-------|----|
D-1713-|-10-|
A-------|----|
E-------|----|

Now repeat the verse, pre-chorus & chorus,
before the Main Solo begins.

Main solo:
Guitar 1
E--0--1--|--0--1--|--0--1--|--0--1--|
B--1--1--|--1--1--|--1--1--|--1--1--|
G--0--2--|--0--2--|--0--2--|--0--2--|
D--2--3--|--2--3--|--2--3--|--2--3--|
A--3--3--|--3--3--|--3--3--|--3--3--|
E--------|--------|--------|--------|
E--1-----|--1-----|--0--1--|--0--1--|
B--1--3--|--1--3--|--1--1--|--1--1--|
G--2--3--|--2--3--|--0--2--|--0--2--|
D--3--3--|--3--3--|--2--3--|--2--3--|
A--3--1--|--3--1--|--3--3--|--3--3--|
E--------|--------|--------|--------|
E--0--1--|--0--1--|--0--1--|--0--1--|
B--1--1--|--1--1--|--1--1--|--1--1--|
G--0--2--|--0--2--|--0--2--|--0--2--|
D--2--3--|--2--3--|--2--3--|--2--3--|
A--3--3--|--3--3--|--3--3--|--3--3--|
E--------|--------|--------|--------|
E--1-----|--1-----|--0--1--|--0--1--|
B--1--3--|--1--3--|--1--1--|--1--1--|
G--2--3--|--2--3--|--0--2--|--0--2--|
D--3--3--|--3--3--|--2--3--|--2--3--|
A--3--1--|--3--1--|--3--3--|--3--3--|
E--------|--------|--------|--------|
E----------|----------|----------|----------|
B----------|----------|----------|----------|
G----------|----------|----------|----------|
D-------3~-|-------3~-|-------4~-|-------4~-|
A----------|----------|----------|----------|
E-1-1-1----|-1-1-1----|-2-2-2----|-2-2-2----|
E---------------------------------|
B---------------------------------|
G---------------------------------|
D--5-5-5--5-5-5--5-5-5--5-5-5--5--|
A--5-5-5--5-5-5--5-5-5--5-5-5--5--|
E--3-3-3--3-3-3--3-3-3--3-3-3--3--|
Guitar 2
E-13-----------|-----------|-8---------|----------|----------|
B----16-13-13~-|----13-16-|---11-8-11-|----------|----------|
G--------------|-14--------|-----------|-10-8-----|-12-10-8~-|
D--------------|-----------|-----------|------10~-|----------|
A--------------|-----------|-----------|----------|----------|
E--------------|-----------|-----------|----------|----------|
E---------------------------|---------------------|-------------8-10-11~-|
B------13--11-13--11-13--11-|-13b-11p8------------|---------8-11---------|
G-10-12--12-----12-----12---|---------11p10p8--8~-|-----8-10-------------|
D---------------------------|----------------10---|-8-10-----------------|
A---------------------------|---------------------|----------------------|
E---------------------------|---------------------|----------------------|
E-11-10-11-8~-|---8-8-8~-|-18-15-13-11--11-----|-11-11-11-11-11-11-------|
B-------------|-10-------|------------13--13~-|------------------13-13~-|
G-------------|----------|---------------------|-------------------------|
D-------------|----------|---------------------|-------------------------|
A-------------|----------|---------------------|-------------------------|
E-------------|----------|---------------------|-------------------------|
E-11--11-13-14-15-15-18-15~-|-17-18-15-18p17p15--------------------------|
B---13----------------------|------------------18p15---------------------|
G---------------------------|-----------------------17p15-15-17-15~-17~-|
D---------------------------|--------------------------------------------|
A---------------------------|--------------------------------------------|
E---------------------------|--------------------------------------------|
E---------------------|----------------|---8-----------------------------|
B---------------------|-8h11p8---------|-8--11p8-------------------------|
G-8-----8----8h10-----|-------10p8h10~-|--------10p8-8h10p8----8---------|
D--8-10--8h10----8h10-|----------------|--------------------10---10-10~-|
A---------------------|----------------|---------------------------------|
E---------------------|----------------|---------------------------------|
E-----------8-10-11p10p8~-|----13-13~--------------------|--------|
B-------8-11--------------|----------13h16p13------------|-----18-|
G---8-10------------------|-/14--------------16p15p13----|---17---|
D-10----------------------|--------------------------15~-|-15-----|
A-------------------------|------------------------------|--------|
E-------------------------|------------------------------|--------|
E---------------------|-15-15-15~-|-15-------------------------------|
B-19-17-17-19-19-19~-|-----------|---18p15--------18p17p15-18p17p15-|
G---------------------|-----------|--------18p17p15------------------|
D---------------------|-----------|----------------------------------|
A---------------------|-----------|----------------------------------|
E---------------------|-----------|----------------------------------|
E----------|--15-15~--|
B-18p17p15-|----------|
G----------|----------|
D----------|----------|
A----------|----------|
E----------|----------|
Chorus:
Guitar 1
E--1--0--|--0--3--|--1--0--|-----1--|
B--1--1--|--1--3--|--1--1--|--3--1--|
G--2--0--|--0--0--|--2--0--|--3--2--|
D--3--2--|--2--0--|--3--2--|--3--3--|
A--3--3--|--3--2--|--3--3--|--1--3--|
E--1-----|-----3--|--1-----|-----1--|
E--1--0--|--0--3--|--------------------------|
B--1--1--|--1--3--|--------------------------|
G--2--0--|--0--0--|--------------------------|
D--3--2--|--2--0--|--5--3-3-3--3-3-3--3-3-3--|
A--3--3--|--3--2--|--5--3-3-3--3-3-3--3-3-3--|
E--1-----|-----3--|--3--1-1-1--1-1-1--1-1-1--|
E------------------------------|
B------------------------------|
G------------------------------|
D--3-3-3--3-3-3--3-3-3--3-3-3--|
A--3-3-3--3-3-3--3-3-3--3-3-3--|
E--1-1-1--1-1-1--1-1-1--1-1-1--|

E--1--0--|--0--3--|--1--0--|-----1--|
B--1--1--|--1--3--|--1--1--|--3--1--|
G--2--0--|--0--0--|--2--0--|--3--2--|
D--3--2--|--2--0--|--3--2--|--3--3--|
A--3--3--|--3--2--|--3--3--|--1--3--|
E--1-----|-----3--|--1-----|-----1--|
E--1--0--|--0--3--|------------------------------|-----|
B--1--1--|--1--3--|------------------------------|--1--|
G--2--0--|--0--0--|------------------------------|--0--|
D--3--2--|--2--0--|--3-3-3--3-3-3--3-3-3--3-3-3--|--2--|
A--3--3--|--3--2--|--3-3-3--3-3-3--3-3-3--3-3-3--|--3--|
E--1-----|-----3--|--1-1-1--1-1-1--1-1-1--1-1-1--|-----|
Guitar 2

E-----|-----------------|---13~-----|-15~-13-15-15-15~-|
B-13~-|-13~-11----------|-13---13~-|------------------|
G-----|--------12-10-8~-|-----------|------------------|
D-----|-----------------|-----------|------------------|
A-----|-----------------|-----------|------------------|
E-----|-----------------|-----------|------------------|
E-13~---------------------13----------15~-|
B----16-13-16----16-13-16----16-13-16------|
G-------------14---------------------------|
D------------------------------------------|
A------------------------------------------|
E------------------------------------------|
E--8-----6/8-----6----------------------------|
B-----8-------8-----8--6----------------------|
G-------------------------8--5--3--0----------|
D-------------------------------------31-----|
A------------------------------------------3--|
E---------------------------------------------|

 Squealer
 Intro (4x):
E|--------------------|-------------------|------------------|
B|--------------------|-------------------|------------------|
G|--2--------------4--|----------------7--|------------------|
D|--3--------------5--|----------------7--|------------------|
A|--3--------------5--|----------------5--|------------------|
E|--1--------------3--|-------------------|------------------|
Verse 1:
 never been never been
|-------------------|--|--|--|--|--|--|--|-------------------|--|--|
|-------------------|--|--|--|--|--|--|--|-------------------|--|--|
|--7----------------|--|--|--|--|--|--|--|--4----------------|--|--|
|--7----------------|--|--|--|--|--|--|--|--4----------------|--|--|
|--5----------------|--|--|--|--|--|--|--|--2----------------|--|--|
|-------------------|--|--|--|--|--|--|--|-------------------|--|--|
 before Verse 2: never liked
|--|-------------------|--|--|--|-------------------|--|
|--|-------------------|--|--|--|-------------------|--|
|--|--7----------------|--|--|--|--7----------------|--|
|--|--7----------------|--|--|--|--7----------------|--|
|--|--5----------------|--|--|--|--5----------------|--|
|--|-------------------|--|--|--|-------------------|--|
 excited
|-------------------|------------------|-------------------|---------------|
|-------------------|------------------|-------------------|---------------|
|--7----------------|------------------|--7----------------|---------------|
|--7----------------|------------------|--7----------------|---------------|
|--5----------------|------------------|--5----------------|---------------|
|-------------------|------------------|-------------------|---------------|
 always had
|-------------------|------------------|-------------------|-----------------|
|-------------------|------------------|-------------------|-----------------|
|--7----------------|------------------|--4----------------|-----------------|
|--7----------------|------------------|--4----------------|-----------------|
|--5----------------|------------------|--2----------------|-----------------|
|-------------------|------------------|-------------------|-----------------|
 fight it
|-------------------|------------------|-------------------|-----------------|
|-------------------|------------------|-------------------|-----------------|
|--4----------------|------------------|--7----------------|-----------------|
|--4----------------|------------------|--7----------------|-----------------|
|--2----------------|------------------|--5----------------|-----------------|
|-------------------|------------------|-------------------|-----------------|
 Verse 3: never been
|-------------------|------------------|--------------------|----------------|
|-------------------|------------------|--------------------|----------------|
|--7----------------|------------------|--5--7--------------|----------------|
|--7----------------|------------------|--5--7--------------|----------------|
|--5----------------|------------------|--3--5--------------|----------------|
|-------------------|------------------|--------------------|----------------|
 before
|--------------------|------------------|--------------------|-------------|
|--------------------|------------------|--------------------|-------------|
|--5--7--------------|------------------|--5--7--------------|-------------|
|--5--7--------------|------------------|--5--7--------------|-------------|
|--3--5--------------|------------------|--3--5--------------|-------------|
|--------------------|------------------|--------------------|-------------|
 I don't think
|--------------------|------------------|--------------------|---------------|
|--------------------|------------------|--------------------|---------------|
|--5--7--------------|------------------|--2--4--------------|---------------|
|--5--7--------------|------------------|--2--4--------------|---------------|
|--3--5--------------|------------------|--0--2--------------|---------------|
|--------------------|------------------|--------------------|---------------|
 no more
|--------------------|------------------|--------------------|---------------|
|--------------------|------------------|--------------------|---------------|
|--2--4--------------|------------------|--5--7--------------|---------------|
|--2--4--------------|------------------|--5--7--------------|---------------|
|--0--2--------------|------------------|--3--5--------------|---------------|
|--------------------|------------------|--------------------|---------------|
 squealer when I held her hand
|--------------------|------------------|--------------------|---------------|
|--------------------|------------------|--------------------|---------------|
|--5--7--------------|------------------|--5--7--------------|---------------|
|--5--7--------------|------------------|--5--7--------------|---------------|
|--3--5--------------|------------------|--3--5--------------|---------------|
|--------------------|------------------|--------------------|---------------|
squealer I made her understand squealer when I kissed herlips
|--------------------|------------------|--------------------|-------------|
|--------------------|------------------|--------------------|-------------|
|--5--7--------------|------------------|--5--7--------------|-------------|
|--5--7--------------|------------------|--5--7--------------|-------------|
|--3--5--------------|------------------|--3--5--------------|-------------|
|--------------------|------------------|--------------------|-------------|
 squealer sucked her fingertips squealer she was startin...
|--------------------|------------------|--------------------|---------------|
|--------------------|------------------|--------------------|---------------|
|--5--7--------------|------------------|--2--4--------------|---------------|
|--5--7--------------|------------------|--2--4--------------|---------------|
|--3--5--------------|------------------|--0--2--------------|---------------|
|--------------------|------------------|--------------------|---------------|
 squealer made it hard to stop squealer got too much
|--------------------|------------------|--------------------|---------------|
|--------------------|------------------|--------------------|---------------|
|--2--4--------------|------------------|--5--7--------------|---------------|
|--2--4--------------|------------------|--5--7--------------|---------------|
|--0--2--------------|------------------|--3--5--------------|---------------|
|--------------------|------------------|--------------------|---------------|
 squealer I think...
|--------------------|------------------|
|--------------------|------------------|
|--5--7--------------|------------------|
|--5--7--------------|------------------|
|--3--5--------------|------------------|
|--------------------|------------------|
 solo part:
|-----------------------|----------------------|------------------------|
|-----------------------|----------------------|------------------------|
|--2--4------4----2--4--|----2--4----4----4----|--2--4--4----4----2--4--|
|--2--4------4----2--4--|----2--4----4----4----|--2--4--4----4----2--4--|
|--0--2------2----0--2--|----0--2----2----2----|--0--2--2----2----0--2--|
|-----------------------|----------------------|------------------------|
|----------------------|------------------------|----------------------|
|----------------------|------------------------|----------------------|
|----2--4----4----4----|--5--7--7----7----5--7--|----5--7----7----7----|
|----2--4----4----4----|--5--7--7----7----5--7--|----5--7----7----7----|
|----0--2----2----2----|--3--5--5----5----3--5--|----3--5----5----5----|
|----------------------|------------------------|----------------------|
|------------------------|----------------------|
|------------------------|----------------------|
|--5--7--7----7----5--7--|----5--7----7----7----|
|--5--7--7----7----5--7--|----5--7----7----7----|
|--3--5--5----5----3--5--|----3--5----5----5----|
|------------------------|----------------------|
 end pattern: go on till end:
|--------------------|------------------|--------------------|
|--------------------|------------------|--------------------|
|--2--------------4--|------------------|--5--7--------------|
|--3--------------5--|------------------|--5--7--------------|
|--3--------------5--|------------------|--3--5--------------|
|--1--------------3--|------------------|--------------------|
Марич Стас rocker@i.ua
Добавлено: 11.10.2013
Другие материалы по этой песне:
  • Текст (слова)

Страница создана 11.10.2013
http://primanota.ru/ac-dc/album-dirty-deeds-done-dirt-cheap-lyrics.htm
Привет, Гость.
Предлагаем пройти революционный курс по гитаре.
Подарок от PrimaNota.Ru, забирай!