PrimaNota.ru - самый крупный в мире бесплатный архив песенных текстов, аккордов, табулатур и нот


Abyssos - Queen Covered In Black - текст песни, таба, видео

Регистрация Запомнить меня
Войти через:  Facebook Google Twitter Vk Yandex Mail.ru

Abyssos - Queen Covered In Black - текст песни, таба, видео

Печатать
Просмотров: 176
Artist:Abyssos
Album:Fhinistian Nightbreed
Song:Queen Coveren In Black
Tab By:Rob Vargo(SauronSatan666@hotmail.com)

Tuning:DGCFAd

  I play along with all the songs I ever tab..so play along for the crisp timing, and enjoy another Abyssos Masterpiece
  Use WinAmp and slide the sound to 1 speaker to hear the different Guitars better.    
  Guitar:L=Left Speaker
  Guitar:R=Right Speaker

  Riff:1 2x 0:00 Play In Order 12345 
  Guitar:L                                       1/2/4                                                               3/5
||----------------------------------------------------|----------------------------------------------------------------||
||----------------------------------------------------|----------------------------------------------------------------||
||----------------------------------------------------|----------------------------------------------------------------||
||---------------------7---------------9791097--7-----|---------------------7---------------9791097--7-----------------||
||7-7910-6-7910-7-7910--109-7-7910-6-7--------10-10976|7-7910-6-7910-7-7910--109-7-7910-6-7--------10-1097676-6-----697||
||----------------------------------------------------|------------------------------------------------------8-87578---||
||Guitar:R
||----------------------------------------------------|----------------------------------------------------------------||
||----------------------------------------------------|----------------------------------------------------------------||
||---------------------5---------------757-975--5-----|---------------------5---------------757-975--5-----------------||
||5-579--4-579--5-579---97--5-579--4-5---------9--9754|5-579--4-579--5-579---97--5-579--4-5---------9--975454----------||
||----------------------------------------------------|------------------------------------------------------76-----679||
||----------------------------------------------------|--------------------------------------------------------87578---||

  Riff:2 2x 0:28
  Guitar:L
||-------------------------------------------------------------------------------------------------------------------||
||-------------------------------------------------------------------------------------------------------------------||
||-------------------------------------------------------------------------------------------------------------------||
||---------------------------------------------------------------777-------------------------------------------------||
||---7-7-7----7-7-7----7-7-7-666999---7-7-7----7-7-7----101010999------7-7-7----7-7-7----7-7-7-666999-78-57-35-23----||
||000------000------000------------000------000------000------------000------000------000------------0--0--0--0--2532||
||Guitar:R
||-------------------------------------------------------------------------------------------------------------------||
||-------------------------------------------------------------------------------------------------------------------||
||-------------------------------------------------------------------------------------------------------------------||
||------------------------------999---------------------999777101010------------------------------999-57-35-23-02----||
||777101010777101010777101010999---777101010777101010777------------777101010777101010777101010999---0--0--0--0--3532||
||-------------------------------------------------------------------------------------------------------------------||

  Riff:3 2x 0:45
  Both Guitars
||--------------------------------------||
||--------------------------------------||
||--------------------------------------||
||----5-555-----7-777-----5-555----4-444||
||2--23-333-2--25-555-2--23-333-2-22-222||
||0--0------0--0------0--0------0-0-----||

  Play Riff:2 2x 0:55
  
  Fill:1 1:14
  Both Guitars
||----------------||
||----------------||
||----------------||
||999-444-555-2459||
||777-222-333-0237||
||----------------||
  
  Riff:4 2x 1:16 
  Both Guitars
||------------------------------------||
||------------------------------------||
||------------------------------------||
||9---9---9---77-9---9-----------7----||
||7---7---7---55-7---7---79107910-9107||
||-000-000-000----000-000-------------||
||
||------------------------------------||
||------------------------------------||
||-------------------------------5----||
||9---9---9---77-9---9---579-579--79-5||
||7---7---7---55-7---7----------------||
||-000-000-000----000-000-------------||

  Play Fill:1 1:24
  Play Riff:4 2x 1:27
  Play Fill:1 1:35
  Play Riff:4 2x 1:38
  Play Fill:1 1:47 

  Riff:5 2x 2:01 Tremlo this riff.Ignore the spacing i did that only to line up the two guitars. Listin for timing
  Guitar:L
||------------|----------|--------------|------------|----------------|----------------|----------------|------------||
||------------|----------|--------------|------------|----------------|----------------|----------------|------------||
||------------|----------|--------------|-8-96-8--6--|----------------|----------------|----------------|------------||
||------------|---7------|69-8-9-69-8-9-|6-------9--8|7-109-107-109-10|9-1211129-121112|1014121410141214|------------||
||710910710910|710-910796|--------------|------------|----------------|----------------|----------------|710910710910||
||------------|----------|--------------|------------|----------------|----------------|----------------|------------||
||Guitar:R
||------------|----------|--------------|------------|----------------|----------------|----------------|------------||
||------------|----------|--------------|------------|----------------|----------------|----------------|------------||
||------------|---5------|--------------|---9--------|----------------|----------------|----------------|------------||
||59-79-59-79-|59--79-57-|91311139131113|913-11139138|1014121410141214|1216141612161416|1417161714171617|59-79-7--5--||
||------------|---------9|--------------|------------|----------------|----------------|----------------|-------9--7-||
||------------|----------|--------------|------------|----------------|----------------|----------------|------------||
 
  Riff:6 2x 2:26
  Guitar:L
||-----------------------------------------------------------------------||
||-----------------------------------------------------------------------||
||---------------------109-7------------------------------1097----975----||
||9----910----108-----------109-76----9----98----810----------1097---976-||
||7----78-----8-6-----------------8---7----76----68---------------------8||
||-0000---0000---000000----------------0000--0000---000000---------------||
||Guitar:R
||-----------------------------------------------------------------------||
||-----------------------------------------------------------------------||
||--------------------------------------------------------1097----975----||
||9----910----108------12109----------9----98----810----------1097---976-||
||7----7-8----8-6-----------121187----7----76----68---------------------8||
||-0000---0000---000000-----------10---0000--0000---000000---------------||

  Play Riff:5 2x 2:38

  Riff:7 2x 3:04
  Guitar:L                                                                                                     Continue
||----------------------------------------------------------------------------------------------------------------------
||----------------------------------------------------------------------------------------------------------------------
||-------------------------------------------------------7777-----------------------------------------------------------
||----------------------------------101010999777---101010----109----------------------------------101010999777---101010-
||---101010999777---1010109109777000------------000----------------101010999777---1010109109777000------------000-------
||000------------000--------------------------------------------000------------000--------------------------------------
||Guitar:R
||----------------------------------------------------------------------------------------------------------------------
||----------------------------------------------------------------------------------------------------------------------
||----------------------------------999777---------9991010101097----------------------------------999777---------9-9-9--
||---999777---------9-9-9-79-7555777------101010777----------------999777---------9-9-9-79-7555777------101010777-------
||777------101010777--------------------------------------------777------101010777--------------------------------------
||----------------------------------------------------------------------------------------------------------------------
  Guitar:L Continued
  ----------||
  ----------||
  --7-------||
  ---1091097||
  ----------||
  ----------||
  Guitar:R 
  ----------||
  ----------||
  --109797--||
  --------10||
  ----------||
  ----------||
 
  Both Guitars
||-||
||-||
||-||
||9||
||7||
||-||

  Riff:8 2x 3:36   C-9
  Guitar:L     the G-7 is played first time only than use 10
||----------------------------------------------------------||
||----------------------------------------------------------||
||----------------------------------------------------------||
||9----------97---------97----------------97109797--7-----79||
||7-----10--9---10-----9--9--910-----10--9--------10-10910--||
||-00000--00------00000----10---00000--00-------------------||
||Guitar:R
||----------------------------------------------------------||
||----------------------------------------------------------||
||----------------------------------------------------------||
||-----------54---------54----------------547-5454--4-----45||
||7-----7---5---7------5--5--57------7---5--------7--7-57---||
||-00000--00------00000----7----00000--00-------------------||

  Riff:9 2x 3:50
  Guitar:L
||--------------------------------------------------------------||
||--------------------------------------------------------------||
||--------------------------------------------------------------||
||-----------------------109797-----------------109797--7-----79||
||10-----109-----910-----------9-10-----109-----------10-10910--||
||--0000----0000----00000----------0000----00000----------------||
||Guitar:R
||--------------------------------------------------------------||
||--------------------------------------------------------------||
||--------------------------------------------------------------||
||-----------------------7----------------------7---------------||
||7------7-7-----77-------109109--7-----7-7------109109797--7910||
||--0000----0000----00000-------10-0000----00000----------10----||

  Both Guitars
||------||
||------||
||------||
||9-9999||
||7-7777||
||------||

  Solo  4:21                                  4:36
  Guitar:L                                2x                                                                 Continue
||------------------------------------------||--------------------------------------------------------------------|--
||------------------------------------------||--------------------------------------------------------------------|--
||------------------------------------------||----------------------------75h7p5----------------------------------|--
||-----97----------------97-----------------||5579-75-------------5-57975-------7--5-57975-------------5797-5--5-5|--
||7-910--1097------97-910--9--9-71097----7--||--------9-5--597-79--------9-------79-------9-5---597--79-------9-9-|--
||-----------10-710---------10-------10-7--7||------------7-----------------------------------7-------------------|--
||Guitar:R
||------------------------------------------||--------------------------------------------------------------------|--
||------------------------------------------||--------------------------------------------------------------------|--
||------------------------------------------||--------------------------------------------------------------------|--
||-----97----------------97-----------------||----------------------------97h9p7----------------------------------|--
||7-910--1097------97-910--9--9-71097----7--||7791097------797--7-791097--------9--7791097------797--7791097--7--7|--
||-----------10-710---------10-------10-7--7||-------101010---10--------10-------10-------101010---10-------10-10-|--
||Guitar:L 4:51 Continued                        2x
||-------------------------------------------------||
||-------------------------------------------------||
||-----------------------------------------7-------||
||--------97----------------------97--9109--1097---||
||7--7-910---10979109----7---7-910--------------109||
||--7----------------10----7-----------------------||
||Guitar:2                                       2x
||-------------------------------------------------||
||-------------------------------------------------||
||-------------------------------------------------||
||-------9---9------9----------9---------9---------||
||1091012-109-121012-1291091012-109101210-12109--9-||
||---------------------------------------------10--||

  Riff:10 Tremlo this riff 5:06
  Guitar:L
||-------------------------------------------------32----------------------------||
||-----------------------------------------43--------3-----65----------1312------||
||----------------------------------------5--5----4---4---7--7-------14----14----||
||----7------------------7---------------5----5--4-----4-7----7----14--------14--||
||7910-109107910679107910-109107910679103------32-------5------5-12------------12||
||-------------------------------------------------------------------------------||
||Guitar:R
||-------------------------------------------------------------------------------||
||-------------------------------------------------------------------------------||
||-----------------------------------------53------42------75---------1412-------||
||---7-10979--79---79---7-10979--79---79--5--5----4--4----7--4------14----14-----||
||710-------10--910--710-------10--910--36----6325----5258----851215--------1512-||
||-------------------------------------------------------------------------------||
 
  Play Riff:6 2x 5:27
  Play Riff:5 2x 5:39

  Both Guitars 6:04
||-||
||-||
||-||
||9||
||7||
||-||

  Riff:11 4x 6:08 
  Guitar:L 2nd/4th time end with ending 2  Ending 1      Ending 2                 
||--------------------------------------|------------||------------||------------------------||
||--------------------------------------|------------||------------||------------------------||
||--------------------------------------|------542---||754---542---||------------------------||
||222522422522-222522422522-222522422522|444444---542||---754---542||222111------------------||
||--------------------------------------|------------||------------||------333222------------||
||--------------------------------------|------------||------------||------------555333222000||
||Guitar:R  play ending 2 2nd/3rd time   Ending 1       Ending 2      
||--------------------------------------|------------||------------||------------------------||
||--------------------------------------|------------||------------||------------------------||
||--------------------------------------|------------||------------||------------------------||
||555955755955-555955755955-555955755955|777777975---||975---975---||555---------------------||
||--------------------------------------|---------975||---975---975||---999777666------------||
||--------------------------------------|------------||------------||------------888777575333||

  Play Riff:3 2x 6:31
  Play Riff:2 2x 6:43
  Play Fill:1 7:01
  Play Riff:4 2x 7:03
  Play Fill:1 7:12 
  Play Riff:4 2x 7:15
  Play Fill:1 7:24
  Play Riff:4 2x 7:26
  Play Fill:1 7:35

  Riff:12 2x 7:38
  Guitar:L
||---------------------------------------------------------32h3p2-------------------------------------||
||---------------------------------------------43h4p3------------3-----65h6p5---------1312h13p12------||
||--------------------------------------------5------5----4-------4---7------7------14----------14----||
||----7--------------------7-----------------5--------5--4-----------7--------7---14--------------14--||
||7910-10910-791067910-7910-10910-791067910-3----------32----------25----------512------------------12||
||----------------------------------------------------------------------------------------------------||
||Guitar:R
||---------------------------------------------------------32h3p2-------------------------------------||
||---------------------------------------------43h4p3------------3-----65h6p5---------1312h13p12------||
||--------------------------------------------5------5----4-------4---7------7------14----------14----||
||--7910979----79---79---7910979----79---79--5--------5--4-----------7--------7---14--------------14--||
||10---------10--910---10---------10--910---3----------32----------25----------512------------------12||
||----------------------------------------------------------------------------------------------------||


  Play Riff:7 2x 8:00

  Go in to riff 8 with Fill:2 
  Fill:2 8:28
  Guitar:L
||----------------||
||----------------||
||----------------||
||109797--7-----79||
||------10-10910--||
||----------------||
||Guitar:R
||----------------||
||----------------||
||----------------||
||7-5454--4-----45||
||------7--7-57---||
||----------------||

  Play Riff:8 2x 8:30
  Play Riff:9 1 and 3/4x 8:43 listin for exact change point and end with ending

  Ending 8:55
  Both Guitars
||----------------------------------||
||----------------------------------||
||----------------------------------||
||5---7-4-7-4-9----9----12-119-999-9||
||3-5-5-2-5-2-7-10-7-12-10-9-7-777-7||
||--3-----------8----10-------------||

Questions/Comments Email SauronSatan666@Hotmail.com
Добавлено: 17.04.2012
Другие материалы по этой песне:
  • Аккорды и текст

Страница создана 17.04.2012
http://primanota.ru/abyssos/queen-covered-in-black-chords.htm
Привет, Гость.
Предлагаем пройти революционный курс по гитаре.
Подарок от PrimaNota.Ru, забирай!