PrimaNota.ru - самый крупный в мире бесплатный архив песенных текстов, аккордов, табулатур и нот


Abyssic Hate - Depression Part 2 - таба, видео

Регистрация Запомнить меня
Войти через:  Facebook Google Twitter Vk Yandex Mail.ru

Abyssic Hate - Depression Part 2 - таба, видео

Печатать
Просмотров: 129
Riff 1 (0:00) play 12 times
|---------------------------------------------------------------|
|-0--0-0-0-0-0-0-0-1-1-1-1-1-1-0-3--3-3-3-3-3-3-3-4-4-4-4-4-4-3-| 
|-2--2-2-2-2-2-2-2-2-2-2-2-2-2-2-5--5-5-5-5-5-5-5-5-5-5-5-5-5-5-| 
|-2--2-2-2-2-2-2-2-2-2-2-2-2-2-2-5--5-5-5-5-5-5-5-5-5-5-5-5-5-5-| 
|-0--0-0-0-0-0-0-0-0-0-0-0-0-0-0-3--3-3-3-3-3-3-3-3-3-3-3-3-3-3-| 
|---------------------------------------------------------------|

Riff 2 (1:27) play 4 times
|---------------------------------------------------------------|
|-2--2-2-2-2-2-2-2-3-3-3-3-3-3-2-1--1-1-1-1-1-1-1-2-2-2-2-2-2-1-| 
|-4--4-4-4-4-4-4-4-4-4-4-4-4-4-4-3--3-3-3-3-3-3-3-3-3-3-3-3-3-3-| 
|-4--4-4-4-4-4-4-4-4-4-4-4-4-4-4-3--3-3-3-3-3-3-3-3-3-3-3-3-3-3-| 
|-2--2-2-2-2-2-2-2-2-2-2-2-2-2-2-1--1-1-1-1-1-1-1-1-1-1-1-1-1-1-| 
|---------------------------------------------------------------|

Riff 1 x 2/3 (1:57)
Riff 2 x 1 (2:57)

Riff 3 (3:27) play 4 times
|-----------------------------------------------------------------|
|-----------------------------------------------------------------|
|-----------------------------------------------------------------|
|-2-2-2-2-2-2-2-2-2-2-2-2-9-9-9-9-6-6-6-6-6-6-6-6-8-8-8-6-6-6-6-6-|
|-2-2-2-2-2-2-2-2-4-4-4-4-7-7-7-7-6-6-6-6-6-6-6-6-6-6-6-6-6-6-6-6-|
|-0-0-0-0-0-0-0-0-0-0-0-0-0-0-0-0-4-4-4-4-4-4-4-4-4-4-4-4-4-4-4-4-|

Riff 4a (3:56) play 3 times
|-----------------------------------------------------------------|
|-----------------------------------------------------------------|
|-----------------------------------------------------------------|
|-4-4-4-4-4-4-4-4-4-4-4-4-4-2-2-2-----------------5-5-5-5-5-2-2-2-|
|-2-2-2-2-2-2-2-2-2-2-2-2-2-0-0-0-2-2-2-2-2-2-2-2-3-3-3-3-3-0-0-0-|
|---------------------------------0-0-0-0-0-0-0-0-----------------|

Riff 4b (4:19)
|-----------------------------------------------------------------|
|-----------------------------------------------------------------|
|-----------------------------------------------------------------|
|-4-4-4-4-4-4-4-4-4-4-4-4-4-2-2-2-----------------5-5-5-5-5-------|
|-2-2-2-2-2-2-2-2-2-2-2-2-2-0-0-0-2-2-2-2-2-2-2-2-3-3-3-3-3-3-3-3-|
|---------------------------------0-0-0-0-0-0-0-0-----------1-1-1-|

Riff 3 x 1 (4:26)

Fill 1 (4:51)
|--------------------------------------------|
|--------------------------------------------| 
|--------------------------------------------| 
|--------------------------------------------| 
|-2------------------------------------------| 
|-0------------------------------------------|

Riff 5 (5:11) play 12 times
|----------------------------------------|
|----------------------------------------|
|----------------------------------------|
|---------------------5---5-5----------9-|
|-2---2-2-2-2---2-2-2-3---3-3-7-7--7-7-7-|
|-0---0-0-0-0---0-0-0---------5-5--5-5---|

Riff 6 (6:19) play until end – volume fade out towards end
|-------------------------------------------------|
|-------------------------------------------------|
|-------------------------------------------------|
|-------------------------5-5-5-5-5-5-------------|
|-2-2-2-2-2-2-2-2-2-2-2-2-3-3-3-3-3-3-7-7-7-7-7-7-|
|-0-0-0-0-0-0-0-0-0-0-0-0-------------5-5-5-5-5-5-|
Добавлено: 18.04.2012
Вам также может быть интересно:
Другие материалы по этой песне:

Страница создана 18.04.2012
http://primanota.ru/abyssic-hate/depression-part-2-chords.htm
Привет, Гость.
Предлагаем пройти революционный курс по гитаре.
Подарок от PrimaNota.Ru, забирай!