PrimaNota.ru - самый крупный в мире бесплатный архив песенных текстов, аккордов, табулатур и нот


Abyssic Hate - Depression Part 1 - таба, видео

Регистрация Запомнить меня
Войти через:  Facebook Google Twitter Vk Yandex Mail.ru

Abyssic Hate - Depression Part 1 - таба, видео

Печатать
Просмотров: 203
Band: Abyssic Hate
Album: Suicidal Emotions
Song: Depression Part One

Copyright (c) No Colours Records, 2000
Version 1.0 – 25/8/2005 – 4/9/2005

Transcribed By: Andrew Collyer
Contact: immortalshadow666@gmail.com

Code: 
. - palm mute           / - slide up to 
\ - slide down to       x – Staccato 
h - hammer on           p - pull off 
, - slight palm mute    () - ghost note, sustained note 
" - tremolo note        <> - Trill 
L – left channel only   R – right channel only 
* - see comment 

Suffixes for bend 
f - full bend       h - half bend 
q - quarter bend    t - tap bend 
^ - Hold bend       r - release bend 
~ - vibrato bend 

Suffixes for harmonic 
ph - pinched harmonic   n – natural/artificial harmonic 

Tuning E A D G B E

Riff 1 (0:00) play 8 times 
|-------------------------------------------------------------------------|
|-------------------------------------------------------------------------|
|-------------------------------------------------------------------------|
|-----------------------------------------4-4-4-5-5-5-4-4-2-2-2-2-2-2-2-2-| 
|-9-9-9-10-10-10-9-9-9-12-12-12-10-10-9-9-5-5-5-5-5-5-5-5-3-3-3-3-3-3-3-3-|
|-0-0-0-0--0--0--0-0-0-0--0--0--0--0--0-0---------------------------------|


Riff 2 (0:58) play 32 times
|----------------------------------|
|----------------------------------|
|----------------------------------|
|-66666666666666663333333333333333-| 
|-44444444444444444444444444444444-|
|----------------------------------|

Riff 3 (2:39) play 8 times
|---------------------------------|---------------------------------|
|-----------------6"--------------|-----------------5"--------------|
|-------------------------4"------|-------------------------4"------|
|---------------------------------|---------------------------------| gtr 1 
|---------------------------------|---------------------------------|
|---------------------------------|---------------------------------|

|---------------------------------|---------------------------------|
|---------------------------------|---------------------------------|
|-2-2-2-2-2-2-2-2-2-2-2-2-2-2-2-2-|---------------------------------|
|-3-3-3-3-3-3-3-3-3-3-3-3-3-3-3-3-|---------------------------------| gtr 2
|---------------------------------|-7-7-7-7-7-7-7-7-7-7-7-7-7-7-7-7-|
|---------------------------------|-5-5-5-5-5-5-5-5-5-5-5-5-5-5-5-5-|


Riff 4 (3:37)
I
|-----------------------------------------------------------------|
|-----------------------------------------------------------------|
|-----------------------------------------------------------------|
|-5-5-5-5-6-6-5-5-8-8-8-8-5-5-5-5---------------------------------| gtr 1 
|-6-6-6-6-6-6-6-6-6-6-6-6-6-6-6-6-7-7-7-7-7-7-7-7-7-7-7-7-7-7-7-7-|
|---------------------------------5-5-5-5-5-5-5-5-5-5-5-5-5-5-5-5-|

|---------------------------------3"----------------------5"------|
|-----------------------------------------6"------5"--------------|
|-----------------------------------------------------------------|
|-----------------------------------------------------------------| gtr 2
|-----------------------------------------------------------------|
|-----------------------------------------------------------------|

II
|-----------------------------------------------------------------|
|-----------------------------------------------------------------|
|-----------------------------------------------------------------|
|-10101010101010109-9-9-9-10101010101010107-7-7-7-9-9-9-9-5-5-5-5-|
|-8-8-8-8-8-8-8-8-8-8-8-8-8-8-8-8-0-0-0-0-0-0-0-0-0-0-0-0-0-0-0-0-|
|-----------------------------------------------------------------|

III
|-----------------------------------------------------------------|
|-----------------------------------------------------------------|
|-----------------------------------------------------------------|
|-5-5-5-5-6-6-5-5-8-8-8-8-5-5-5-5---------------------------------| gtr 1 
|-6-6-6-6-6-6-6-6-6-6-6-6-6-6-6-6-7-7-7-7-7-7-7-7-7-7-7-7-7-7-7-7-|
|---------------------------------5-5-5-5-5-5-5-5-5-5-5-5-5-5-5-5-|

|---------------------------------3"--------------5"--------------|
|-----------------------------------------6"--------------5"------|
|-----------------------------------------------------------------|
|-----------------------------------------------------------------| gtr 2
|-----------------------------------------------------------------|
|-----------------------------------------------------------------|

IV
|-----------------------------------------------------------------|
|-----------------------------------------------------------------|
|-----------------------------------------------------------------|
|-10101010101010109-9-9-9-10101010101010107-7-7-7-9-9-9-9-5-5-5-5-|
|-8-8-8-8-8-8-8-8-8-8-8-8-8-8-8-8-0-0-0-0-0-0-0-0-0-0-0-0-0-0-0-0-|
|-----------------------------------------------------------------|

Riff 3 x 1 (4:06)
Riff 4 x 1 (5:03)

Riff 5 (5:32) play 4 times
|-------0--0--------0--0--------4--4--------4--4--|
|-------0--0--------0--0--------4--4--------4--4--|
|-1-1-1-------1-1-1-------------------------------|
|-2-2-2-2--2--2-2-2-2--2--6-6-6-6--6--6-6-6-6--6--|
|-2-2-2-2--2--2-2-2-2--2--6-6-6-6--6--6-6-6-6--6--|
|-0-0-0-0--0--0-0-0-0--0--4-4-4-4--4--4-4-4-4--4--|


Riff 6 (6:02) play twice

I (x4)
|------------------------------------------------------------------|
|------------------------------------------------------------------|
|------------------------------------------------------------------|
|------------------------------------------------------------------| gtr 1 
|-2---2---2---2---2---2---2---2---6---6---6---6---6---6---6---6----|
|-0---0---0---0---0---0---0---0---4---4---4---4---4---4---4---4----|

|------------------------------------------------------------------|
|-------------------------------------------------4----------------|
|------------------------------------------------------------------|
|-2-------2-------4-------6----------------------------------------| gtr 2
|---------------------------------6-7-6---6------------------------|
|------------------------------------------------------------------|


II (x4)
|------------------------------------------------------------------|
|------------------------------------------------------------------|
|------------------------------------------------------------------|
|------------------------------------------------------------------| gtr 1 
|-2---2---2---2---2---2---2---2---6---6---6---6---6---6---6---6----|
|-0---0---0---0---0---0---0---0---4---4---4---4---4---4---4---4----|

|------------------------------------------------------------------|
|-------------------------------------------------4----------------|
|---------------------------------4--------------------------------|
|-2-------2---------------6---------7-6----------------------------| gtr 2
|-----------------2-----------------------6------------------------|
|------------------------------------------------------------------|


Riff 7 (7:32) play 4 times
I
|------------------------------------------------------------------|
|------------------------------------------------------------------|
|-------------------------------------------------13131313---------|
|------------------------------------------------------------------|
|-2-2-2-2-2-2-2-2-2-2-2-2-2-9-9-9-11111111111111111111111111111111-|
|-0-0-0-0-0-0-0-0-0-0-0-0-0-0-0-0-0-0-0-0-0-0-0-0-0-0-0-0-0-0-0-0--|

II
|------------------------------------------------------------------|
|------------------------------------------------------------------|
|------------------------------------------------------------------|
|------------------------------------------------------------------|
|-6-6-6-6-6-6-6-6-6-6-6-6-6-7-7-7-6-6-6-6-6-6-6-6-6-6-6-7-7-6-6-6--|
|-4-4-4-4-4-4-4-4-4-4-4-4-4-4-4-4-4-4-4-4-4-4-4-4-4-4-4-4-4-4-4-4--|


Riff 8 (8:32) play 4 times
|------------------------------------------------------------------|
|------------------------------------------------------------------|
|------------------------------------------------------------------|
|-----------------4-----------------------------4-4-4-4-4-4-4-4-4--|
|-2-2-2-2-2-2-2-2-2-2-2-2-2-2-2-2-2-2-2-2-2-2-2-2-2-2-2-2-2-2-2-2--|
|-3-3-3-3-3-3-3-3-3-3-3-3-3-3-3-3-0-0-0-0-0-0-0-0-0-0-0-0-0-0-0-0--|

Riff 2 x 1/4 (9:32)

Riff 9 (10:02) play until end, I'm not sure if this is correct
|----------------------------------------------------------------------------
|----------------------------------------------------------------------------
|----------------------------------------------------------------------------
|----------------------------------------------------------------------------
|-7-7-7-7-7-7-7-7-5-5-5-5-5-5-5-5-7-7-7-7-7-7-7-7-2-2-2-2-2-2-2-2-5-5-5-5-5--
|-5-5-5-5-5-5-5-5-5-5-5-5-5-5-5-5-5-5-5-5-5-5-5-5-5-5-5-5-5-5-5-5-5-5-5-5-5--

|----------------------------------------------------------|
|----------------------------------------------------------|
|----------------------------------------------------------|
|-------------------------7-7-7-7-7-7-7-7-7-7-7-7-7-7-7-7--|
|-5-5-5-5-5-5-5-5-2-2-3-3-0-0-0-0-0-0-0-0-0-0-0-0-0-0-0-0--|
|-5-5-5-5-5-5-5-5-5-5-5-5----------------------------------|
Добавлено: 25.04.2012
Вам также может быть интересно:
Другие материалы по этой песне:

Страница создана 25.04.2012
http://primanota.ru/abyssic-hate/depression-part-1-chords.htm
Привет, Гость.
Предлагаем пройти революционный курс по гитаре.
Подарок от PrimaNota.Ru, забирай!