PrimaNota.ru - самый крупный в мире бесплатный архив песенных текстов, аккордов, табулатур и нот


Abyss - Sorgens Dal - таба, видео

Регистрация Запомнить меня
Войти через:  Facebook Google Twitter Vk Yandex Mail.ru

Abyss - Sorgens Dal - таба, видео

Печатать
Просмотров: 142
Band- Abyss
Song- Sorgens Dal

Tunning E B G D A E
INtro
|-------------------------------------------------------------------|
|-------------------------------------------------------------------|
|-------------------------------------------------------------------|
|---777--888888--777--888888--666--555-----2X-----------------------|
|---555--666666--555--666666--444--333------------------------------|
|-------------------------------------------------------------------|

|-------------------------------------------------------------------|
|-------------------------------------------------------------------|
|-------------------------------------------------------------------|
|---77777888888777778888886655------4X------------------------------|
|---55555666666555556666664433--------------------------------------|
|-------------------------------------------------------------------|

|-------------------------------------------------------------------|
|-------------------------------------------------------------------|
|-------------------------------------------------------------------|
|---777--888888--777--888888--666--555----12X-----------------------|
|---555--666666--555--666666--444--333------------------------------|
|-------------------------------------------------------------------|

|-------------------------------------------------------------------|
|-------------------------------------------------------------------|
|-------------------------------------------------------------------|
|-------------------------------------------------------------------|
|---888-7-6666-5555-4444-----5X-------------------------------------|
|---666-5-4444-3333-2222--------------------------------------------|

|-------------------------------------------------------------------|
|-------------------------------------------------------------------|
|-------------------------------------------------------------------|
|-------------------------------------------------------------------|
|-------------------------------------------------------------------|
|---0"3"2"1"2"-0"3"2"4"5"----2x--00-33-22-11-00-33-22-44-55--9X-----|

|-------------------------------------------------------------------|
|-------------------------------------------------------------------|
|-------------------------------------------------------------------|5X
|-------------------------------------------------------------------|
|-------------------------------------------------------------------|
|---0000-3333-2222-1111-0000-3333-2222-444-5555---------------------|

|-------------------------------------------------------------------|
|-------------------------------------------------------------------|
|-------------------------------------------------------------------|
|-------------------------------------------------------------------|
|---5-5-5-5-5-5-66-5-5-5-5-5-5-44-----8X----------------------------|
|---3-3-3-3-3-3-44-3-3-3-3-3-3-22-----------------------------------|

|-------------------------------------------------------------------|
|-------------------------------------------------------------------|
|-------------------------------------------------------------------|
|---777--888888--777--888888--666--555-----As many times------------|
|---555--666666--555--666666--444--333------necessary---------------|
|-------------------------------------------------------------------|
Добавлено: 22.02.2012
Вам также может быть интересно:
Другие материалы по этой песне:
  • Аккорды и текст

Страница создана 22.02.2012
http://primanota.ru/abyss/sorgens-dal-chords.htm
Привет, Гость.
Предлагаем пройти революционный курс по гитаре.
Подарок от PrimaNota.Ru, забирай!