PrimaNota.ru - самый крупный в мире бесплатный архив песенных текстов, аккордов, табулатур и нот


Absynthe Minded - Ill Be Alright - таба, видео

Регистрация Запомнить меня
Войти через:  Facebook Google Twitter Vk Yandex Mail.ru

Absynthe Minded - Ill Be Alright - таба, видео

Печатать
Просмотров: 125
-------------------------------------------------------------------------------
                             I'll be alright - Absynthe Minded
-------------------------------------------------------------------------------
Tabbed by: AF
Tuning: Standard




Chords :

    E     C     D     B     G     F#

e|--0-----0-----2----(2)----3-----3--|
B|--0-----1-----3-----4-----0-----0--|
G|--1-----0-----2-----4-----0-----0--|
D|--2-----2-----0-----4-----0-----0--|
A|--2-----3-----------2-----2-----0--|
E|--0-----------------------3-----2--|




Intro (chords on top of the tab) :
          E               C               D    B          C 
e|--0-2-0-4---------0-2-0-3---------0-2-0-3---------0-2-0-3------------------|
B|---------------------------------------------------------------------------|
G|---------------------------------------------------------------------------|
D|---------------------------------------------------------------------------|
A|---------------------------------------------------------------------------|
E|---------------------------------------------------------------------------|



            E
I've been a fool
             C
But I did my time
           D      B
And I came back
              C
Took what was mine
                   E
One look into your eyes
                C
I know what you mean
                D       B
I know what it spells
          C                D
It spells never come back again


G                F# E
What a beautiful story
                    C
It's the best ever told
       G   F#   C
And it all went void
       G   F#   E      F#  G
And it all went void
               E     F#  G
I gotta let it go
                          C
Take a deep breath and go home
         G      F# C
When the lights go out
       G  F# E
I will be alright


                    C
Take a look at the sky
                    D      B
Tell me what do you see
                C
Nothing but memories
                          E
Some are fading, some are beaming
                       C
I don't know what they mean
                      D      B
I don't know why I'm here
                         C                    D
But I'm sure that those stars will never disappear


G                F# E
What a beautiful story
                    C
It's the best ever told
       G   F#   C
And it all went void
       G   F#   E      F#  G
And it all went void
               E     F#  G
I gotta let it go
                          C
Take a deep breath and go home
         G      F# C
When the lights go out
       G  F# E
I will be alright




Outro

...I will be alright
          G  F# E             C                D       B       C
e|---------------------------------------------------------------------------|
B|---------------------------------------------------------------------------|
G|---------------------------------------------------------------------------|
D|-----------------------------------------------------9---7---5~------------|
A|---------------------7~----------------------9~----------------------------|
E|---------------------------------------------------------------------------|

    E                                 C              D      B            C
e|---------------------------------------------------------------------------|
B|---------------------------------------------------------------------------|
G|---------------------------------------------------------------------------|
D|--5------------------------------------------------------------------------|
A|----7-5-7-----7-5-2-0-2-0-2-----0-2-3~---------2-3-5~----------------------|
E|---------------------------------------------------------------------------|


         E                    C             D          B        C
e|---------------------------------------------------------------------------|
B|-------8~------------------------------------------------------------------|
G|---9-9--------------9-7-9-9-9b~-----------10b-----------------11b----------|
D|---------------------------------------------------------------------------|
A|---------------------------------------------------------------------------|
E|---------------------------------------------------------------------------|


              E
e|---------------------------------------------------------------------------|
B|---------------------------------------------------------------------------|
G|---------------------------------------------------------------------------|
D|---9----7-5----------------------------------------------------------------|
A|------------7~-------------------------------------------------------------|
E|------------0~-------------------------------------------------------------|



************************************

| /   slide up
| \   slide down
| h   hammer-on
| p   pull-off
| ~   vibrato
| +   harmonic
| x   Mute note
| b   Bend
| pb  Pre-bend
| br  Bend release
| pbr Pre-bend release
| brb Bend release bend

************************************
Добавлено: 30.07.2012
Другие материалы по этой песне:
  • Аккорды и текст

Страница создана 30.07.2012
http://primanota.ru/absynthe-minded/ill-be-alright-chords.htm
Привет, Гость.
Предлагаем пройти революционный курс по гитаре.
Подарок от PrimaNota.Ru, забирай!