PrimaNota.ru - самый крупный в мире бесплатный архив песенных текстов, аккордов, табулатур и нот


Absu - Stone of Destiny - текст песни, таба, видео

Регистрация Запомнить меня
Войти через:  Facebook Google Twitter Vk Yandex Mail.ru

Absu - Stone of Destiny - текст песни, таба, видео

Печатать
Просмотров: 64
Уроки эстрадного вокала в Санкт-Петербурге
-------------------------------------------------------------------------------
                             Stone of Destiny - Absu
-------------------------------------------------------------------------------


Tuning: d# a# f# c# g# D#

e|--------------------------------------------|
B|--------------------------------------------|
G|--------------------------------------------|
D|-9---------9---------9---------7--7---------|
A|-7---10-9--7---12-10-7---10-9--5--5--10-9---|
E|--------------------------------------------|

e|----------------------------------|
B|----------------------------------|
G|----------------------------------|
D|----------------------------------|
A|-2------2-------2-------3-0-3-5-3-|
E|-0--2-3-0---3-5-0--2-3------------|

e|---------------------------------------|
B|---------------------------------------|
G|---------------------------------------]
D|-9--11-12--14--12-11-9--11-12--7-7-7---|
A|-7--9--10--12--10-9--7--9--10--5-5-5---|
E|---------------------------------------|
                            x12                                x2
e|------------------|---------|----------------------------------|
B|------------------|---------|----------------------------------|
G|------------------|---------|----------------------------------|
D|-9--7--5--9--7--5-|---------|----------------------------------|
A|-7--5--3--7--5--3-|-7--10-9-|--7------------7--------------7---|
E|------------------|-5--8--7-|--5------8-7-5-5-----8-7-5-10-5---|

   solo
e|---------------------------------------------------------------------------|
B|---------------------------------------------------------------------------|
G|--------9-------------9---------9-10-9-7-9~---9-10-9-7---------------------|
D|---9-10---10-9---9-10---10-9-7~------------------------10-9-7--------------|
A|-7-------------7----------------------------------------------10-8-7~------|
E|---------------------------------------------------------------------------|

e|-----------------------------------171717-19-17-15-17-15-----------------------------------------|
B|---------------------------------------------------------18-17-15--------------------------------|
G|-9/10-10/12-/14--/12-/10/9-9/14~----------------------------------17-16-14~----14-12h14p12-------|
D|-------------------------------------------------------------------------------------------14~---|
A|-7/8--8/-10-/12--/10-/8-/7-7/12~-----------------------------------------------------------------|
E|-------------------------------------------------------------------------------------------------|
                                          x3
e|-------------------------------------------|--------------------------------|
B|-------------------------------------------|--------------------------------|
G|-------------------------------------------|--------------------------------|
D|-2-------------2-------------2-------------|-------------2------------------|
A|-0-0-0-0-0-0-0-0-0-0-0-0-0-0-0-5-3-0-2-3-0-|-5-3-0-2-3-0-0------------------|
E|-------------------------------------------|--------------------------------|
     . . . . . .   . . . . . .    
                x4               x4 
e|-----------------|-----------------|----------------|
B|-----------------|-----------------|----------------|
G|-----------------|-----------------|----------------|
D|-7-7-7-5-5-5-2---|--999999-555-777-|----------------|
A|-5-5-5-3-3-3-0---| -777777-333-555-|--4-4-4-5-5-5---|
E|-----------------|-----------------|--2-2-2-3-3-3---|

  3:43 
e|---------------------------------------------------------------------------|
B|---------------------------------------------------------------------------|
G|----9---9---9---10---9---9---10--------9---9---9---10---9---9--------------|
D|--7---7---7---7----7---7---7----7-10-7---7---7---7----7---7---7-10-7-10----|
A|---------------------------------------------------------------------------|
E|---------------------------------------------------------------------------|
    .   .   .   .    .   .   .    .    .   .   .   .    .   .   .    .
e|----------------------------------------------|
B|----------------------------------------------|
G|----------------------------------------------|
D|-9/11-11-9/11-12-12-12--9/11-11--4-4-4-5-5-5--|
A|-7/9--9--7/9--10-10-10--7/9--9---2-2-2-3-3-3--|
E|----------------------------------------------|
  4:39                                                        4:54
e|----------------------|-------------------------------------|------------|
B|----------------------|-------------------------------------|------------|
G|----------------------|-------------------------------------|------------|
D|-9-9-9-9--5-5-5-7-7-7-|-------------------------------------|-4----2-----|
A|-7-7-7-7--3-3-3-5-5-5-|-------------------------------------|-2----0-----|
E|----------------------|-22200033322200333222000333222000333-|------------|
                                                                                                x4
e|-----------------|------------------------------------------------------------------------------|
B|-----------------|------------------------------------------------------------------------------|
G|-----------------|------------------------------------------------------------------------------|
D|------------2--4-|--999977557777554455554422444422220000-9---------9---------9---------9--------|
A|-5----4--5--0--2-|---------------------------------------7---------7---------7---------7--------|
E|-3----2--3-------|---------------------------------------0-0-0-0-0-0-0-0-0-0-0-0-0-0-0-0-0-0-0-0|
                                                             . . . .   . . . .   . . . .   . . . .

  repeat this line until fade out
e|---------------------------------------------------------------------------|
B|---------------------------------------------------------------------------|
G|---------------------------------------------------------------------------|
D|--999977557777554455554422444422220000-9-----10-9-------7-----10h12-9------|
A|---------------------------------------7-----7--7-------9-----7--7--7------|
E|---------------------------------------0-0-0-0--0-0-0-0-0-0-0-0--0--0-0-0--|
                                           . . .    . . .   . .         . .  
e|---------------------------------------------------------------------------|
B|---------------------------------------------------------------------------|
G|---------------------------------------------------------------------------|
D|-999977557777554455554422444422220000-9-----10-9-----10h12-9-----10-9------|
A|--------------------------------------7-----7--7-----7--7--7-----7--7------|
E|--------------------------------------0-0-0-0--0-0-0-0--0--0-0-0-0--0-0-0--|
                                          . .      . .         . .      . . 

************************************

| /   slide up
| \   slide down
| h   hammer-on
| p   pull-off
| ~   vibrato
| +   harmonic
| x   Mute note
| b   Bend
| pb  Pre-bend
| br  Bend release
| pbr Pre-bend release
| brb Bend release bend

************************************
Добавлено: 13.08.2015
Другие материалы по этой песне:
  • Аккорды и текст

Страница создана 17.06.2012
http://primanota.ru/absu/stone-of-destiny-chords.htm
Привет, Гость.
Предлагаем пройти революционный курс по гитаре.
Подарок от PrimaNota.Ru, забирай!