PrimaNota.ru - самый крупный в мире бесплатный архив песенных текстов, аккордов, табулатур и нот


Absent Minded - Take This Chance - таба, бас-таба, видео

Регистрация Запомнить меня
Войти через:  Facebook Google Twitter Vk Yandex Mail.ru

Absent Minded - Take This Chance - таба, бас-таба, видео

Печатать
Просмотров: 153
Band: Absent Minded
Song: Take This Chance
Album: The Color Between Black And White

Guitar 1: EADGBe
Guitar 2: EADGBe


Guitar 1
     H           W                   W                   W                   W                 
E||-----------|-------------------|-------------------|-------------------|-------------------|
B||-----------|-------------------|-------------------|-------------------|-------------------|
G||-----------|-------------------|-------------------|-------------------|-------------------|
D||-----------|-------------------|-------------------|-------------------|-------------------|
A||-----------|-------------------|-------------------|-------------------|-------------------|
E||-----------|-------------------|-------------------|-------------------|-------------------|


  W                   W                   W                   H.           E  E   
-------------------|-------------------|-------------------|---------------------|
-------------------|-------------------|-------------------|---------------------|
-------------------|-------------------|-------------------|------------------9--|
-------------------|-------------------|-------------------|------------------x--|
-------------------|-------------------|-------------------|------------------7--|
-------------------|-------------------|-------------------|---------------------|


  E  E  Q    E  Q    E     E  E  Q    E  Q    E     E  E  Q    E  Q    E     E  E  Q    E  Q    E   
------------------------|------------------------|------------------------|------------------------|
------------------------|------------------------|------------------------|------------------------|
--L--9--9----9--8----9--|--L--9--9----9--8----9--|--L--9--9----9--8----4--|--L--4--4----4--4----9--|
-----x--x----x--x----x--|-----x--x----x--x----x--|-----x--x----x--x----x--|-----x--x----x--x----x--|
--L--7--7----7--6----7--|--L--7--7----7--6----7--|--L--7--7----7--6----2--|--L--2--2----2--2----7--|
------------------------|------------------------|------------------------|------------------------|


  E  E  Q    E  Q    E     E  E  Q    E  Q    E     E  E  E  E  E  E  E  E   
------------------------|------------------------|--------------------------|
------------------------|------------------------|--------------------------|
--L--9--9----9--8----9--|--L--9--9----9--8----4--|--L--4--4-----4--4--4-----|
-----x--x----x--x----x--|-----x--x----x--x----x--|-----x--x-----x--x--x-----|
--L--7--7----7--6----7--|--L--7--7----7--6----2--|--L--2--2-----2--2--2-----|
------------------------|------------------------|--------------------------|


  E  E  E  E  E  E  E  E     E   E  E   E  E   E  E   E     E   E  E   E  E   E  E   E   
--------------------------|------------------------------|------------------------------|
--------------------------|------------------------------|------------------------------|
--4--4--4-----4--4--4-----|--9--11-----11-----11-----11--|-----11-----11-----11-----11--|
--x--x--x-----x--x--x-----|--9--11-----11-----11-----11--|-----11-----11-----11-----11--|
--2--2--2-----2--2--2-----|------------------------------|------------------------------|
--------------------------|------------------------------|------------------------------|


  E   E  E   E  E   E  E   E     E   E  E   E  E   E  E   E     E   E  E   E  E   E  E   E   
------------------------------|------------------------------|------------------------------|
------------------------------|------------------------------|------------------------------|
--9--11-----11-----11-----11--|-----11-----11-----11-----11--|--9--11-----11-----11-----11--|
--9--11-----11-----11-----11--|-----11-----11-----11-----11--|--9--11-----11-----11-----11--|
------------------------------|------------------------------|------------------------------|
------------------------------|------------------------------|------------------------------|


  E   E  E   E  E   E  E   E     E   E  E   E  E   E  E   E     E   E  E   E  E   E  E   E   
------------------------------|------------------------------|------------------------------|
------------------------------|------------------------------|------------------------------|
-----11-----11-----11-----11--|--9--11-----11-----11-----11--|-----11-----11-----11-----11--|
-----11-----11-----11-----11--|--9--11-----11-----11-----11--|-----11-----11-----11-----11--|
------------------------------|------------------------------|------------------------------|
------------------------------|------------------------------|------------------------------|


  W                   W                   W                   H.           E  E   
-------------------|-------------------|-------------------|---------------------|
-------------------|-------------------|-------------------|---------------------|
--7----------------|--L----------------|--9----------------|--L------------L--9--|
--7----------------|--L----------------|--7----------------|--L------------L--x--|
-------------------|-------------------|-------------------|------------------7--|
-------------------|-------------------|-------------------|---------------------|


  E  E  Q    E  Q    E     E  E  Q    E  Q    E     E  E  Q    E  Q    E     E  E  Q    E  Q    E   
------------------------|------------------------|------------------------|------------------------|
------------------------|------------------------|------------------------|------------------------|
--L--9--9----9--8----9--|--L--9--9----9--8----9--|--L--9--9----9--8----4--|--L--4--4----4--4----9--|
-----x--x----x--x----x--|-----x--x----x--x----x--|-----x--x----x--x----x--|-----x--x----x--x----x--|
--L--7--7----7--6----7--|--L--7--7----7--6----7--|--L--7--7----7--6----2--|--L--2--2----2--2----7--|
------------------------|------------------------|------------------------|------------------------|


  E  E  Q    E  Q    E     E  E  Q    E  Q    E     E  E  E  E  E  E  E  E   
------------------------|------------------------|--------------------------|
------------------------|------------------------|--------------------------|
--L--9--9----9--8----9--|--L--9--9----9--8----4--|--L--4--4-----4--4--4-----|
-----x--x----x--x----x--|-----x--x----x--x----x--|-----x--x-----x--x--x-----|
--L--7--7----7--6----7--|--L--7--7----7--6----2--|--L--2--2-----2--2--2-----|
------------------------|------------------------|--------------------------|


  E  E  E  E  E  E  E  E     E  E  Q    E  Q    E     E  E  Q    E  Q    E   
--------------------------|------------------------|------------------------|
--------------------------|------------------------|------------------------|
--4--4--4-----4--4--4--9--|--L--9--9----9--8----9--|--L--9--9----9--8----9--|
--x--x--x-----x--x--x--x--|-----x--x----x--x----x--|-----x--x----x--x----x--|
--2--2--2-----2--2--2--7--|--L--7--7----7--6----7--|--L--7--7----7--6----7--|
--------------------------|------------------------|------------------------|


  E  E  Q    E  Q    E     E  E  Q    E  Q    E     E  E  Q    E  Q    E     E  E  Q    E  Q    E   
------------------------|------------------------|------------------------|------------------------|
------------------------|------------------------|------------------------|------------------------|
--L--9--9----9--8----4--|--L--4--4----4--4----9--|--L--9--9----9--8----9--|--L--9--9----9--8----4--|
-----x--x----x--x----x--|-----x--x----x--x----x--|-----x--x----x--x----x--|-----x--x----x--x----x--|
--L--7--7----7--6----2--|--L--2--2----2--2----7--|--L--7--7----7--6----7--|--L--7--7----7--6----2--|
------------------------|------------------------|------------------------|------------------------|


  E  E  E  E  E  E  E  E     E  E  E  E  E  E  E  E     W                   H        E  E  E  E   
--------------------------|--------------------------|-------------------|-----------------------|
--------------------------|--------------------------|-------------------|-----------------------|
--L--4--4-----4--4--4-----|--4--4--4-----4--4--4-----|--6----------------|--L--------L--6--6--8--|
-----x--x-----x--x--x-----|--x--x--x-----x--x--x-----|--x----------------|--------------x--x--x--|
--L--2--2-----2--2--2-----|--2--2--2-----2--2--2-----|--4----------------|--L--------L--4--4--6--|
--------------------------|--------------------------|-------------------|-----------------------|


  W                    W                   E   E  E   E  E   E  E   E   
-------------------|--------------------|------------------------------|
-------------------|--------------------|------------------------------|
--9----------------|--11----------------|--9--11-----11-----11-----11--|
--x----------------|---x----------------|--9--11-----11-----11-----11--|
--7----------------|---9----------------|------------------------------|
-------------------|--------------------|------------------------------|


  E   E  E   E  E   E  E   E     E   E  E   E  E   E  E   E     E   E  E   E  E   E  E   E   
------------------------------|------------------------------|------------------------------|
------------------------------|------------------------------|------------------------------|
-----11-----11-----11-----11--|--9--11-----11-----11-----11--|-----11-----11-----11-----11--|
-----11-----11-----11-----11--|--9--11-----11-----11-----11--|-----11-----11-----11-----11--|
------------------------------|------------------------------|------------------------------|
------------------------------|------------------------------|------------------------------|


  E   E  E   E  E   E  E   E     E   E  E   E  E   E  E   E     E   E  E   E  E   E  E   E   
------------------------------|------------------------------|------------------------------|
------------------------------|------------------------------|------------------------------|
--9--11-----11-----11-----11--|-----11-----11-----11-----11--|--9--11-----11-----11-----11--|
--9--11-----11-----11-----11--|-----11-----11-----11-----11--|--9--11-----11-----11-----11--|
------------------------------|------------------------------|------------------------------|
------------------------------|------------------------------|------------------------------|


  E   E  E   E  E   E  E   E     W                   W                   W                 
------------------------------|-------------------|-------------------|-------------------|
------------------------------|-------------------|-------------------|-------------------|
-----11-----11-----11-----11--|--7----------------|--L----------------|--9----------------|
-----11-----11-----11-----11--|--7----------------|--L----------------|--7----------------|
------------------------------|-------------------|-------------------|-------------------|
------------------------------|-------------------|-------------------|-------------------|


  H.           E  E     E  E  Q    E  Q    E     E  E  Q    E  Q    E     E  E  Q    E  Q    E   
---------------------|------------------------|------------------------|------------------------|
---------------------|------------------------|------------------------|------------------------|
--L------------L--9--|--L--9--9----9--8----9--|--L--9--9----9--8----9--|--L--9--9----9--8----4--|
--L------------L--x--|-----x--x----x--x----x--|-----x--x----x--x----x--|-----x--x----x--x----x--|
------------------7--|--L--7--7----7--6----7--|--L--7--7----7--6----7--|--L--7--7----7--6----2--|
---------------------|------------------------|------------------------|------------------------|


  E  E  Q    E  Q    E     E  E  Q    E  Q    E     E  E  Q    E  Q    E   
------------------------|------------------------|------------------------|
------------------------|------------------------|------------------------|
--L--4--4----4--4----9--|--L--9--9----9--8----9--|--L--9--9----9--8----4--|
-----x--x----x--x----x--|-----x--x----x--x----x--|-----x--x----x--x----x--|
--L--2--2----2--2----7--|--L--7--7----7--6----7--|--L--7--7----7--6----2--|
------------------------|------------------------|------------------------|


  E  E  E  E  E  E  E  E     E  E  E  E  E  E  E  E     E  E  Q    E  Q    E   
--------------------------|--------------------------|------------------------|
--------------------------|--------------------------|------------------------|
--L--4--4-----4--4--4-----|--4--4--4-----4--4--4--9--|--L--9--9----9--8----9--|
-----x--x-----x--x--x-----|--x--x--x-----x--x--x--x--|-----x--x----x--x----x--|
--L--2--2-----2--2--2-----|--2--2--2-----2--2--2--7--|--L--7--7----7--6----7--|
--------------------------|--------------------------|------------------------|


  E  E  Q    E  Q    E     E  E  Q    E  Q    E     E  E  Q    E  Q    E     E  E  Q    E  Q    E   
------------------------|------------------------|------------------------|------------------------|
------------------------|------------------------|------------------------|------------------------|
--L--9--9----9--8----9--|--L--9--9----9--8----4--|--L--4--4----4--4----9--|--L--9--9----9--8----9--|
-----x--x----x--x----x--|-----x--x----x--x----x--|-----x--x----x--x----x--|-----x--x----x--x----x--|
--L--7--7----7--6----7--|--L--7--7----7--6----2--|--L--2--2----2--2----7--|--L--7--7----7--6----7--|
------------------------|------------------------|------------------------|------------------------|


  E  E  Q    E  Q    E     E  E  E  E  E  E  E  E     E  E  E  E  E  E  E  E   
------------------------|--------------------------|--------------------------|
------------------------|--------------------------|--------------------------|
--L--9--9----9--8----4--|--L--4--4-----4--4--4-----|--4--4--4-----4--4--4-----|
-----x--x----x--x----x--|-----x--x-----x--x--x-----|--x--x--x-----x--x--x-----|
--L--7--7----7--6----2--|--L--2--2-----2--2--2-----|--2--2--2-----2--2--2-----|
------------------------|--------------------------|--------------------------|


  E  Q    E  Q    E  E     E  E  Q    E  Q.        E  Q    E  Q    E  E     E  E  Q    E  Q.      
------------------------|-----------------------|------------------------|-----------------------|
-----3-------3-------3--|--L-----3-------3------|-----2-------2-------2--|--L-----2-------2------|
--2-------2-------2-----|-----2-------2---------|--2-------2-------2-----|-----2-------2---------|
------------------------|-----------------------|------------------------|-----------------------|
------------------------|-----------------------|------------------------|-----------------------|
------------------------|-----------------------|------------------------|-----------------------|


  E  Q    E  Q    E  E     E  E  Q    E  Q.        E  Q    E  Q    E  E     E  E  Q    E  Q.      
------------------------|-----------------------|------------------------|-----------------------|
-----3-------3-------3--|--L-----3-------3------|-----2-------2-------2--|--L-----2-------2------|
--4-------4-------4-----|-----4-------4---------|--2-------2-------2-----|-----2-------2---------|
------------------------|-----------------------|------------------------|-----------------------|
------------------------|-----------------------|------------------------|-----------------------|
------------------------|-----------------------|------------------------|-----------------------|


  E  Q    E  Q    E  E     E  E  Q    E  Q.        E  Q    E  Q    E  E     E  E  Q    E  Q.      
------------------------|-----------------------|------------------------|-----------------------|
-----3-------3-------3--|--L-----3-------3------|-----2-------2-------2--|--L-----2-------2------|
--2-------2-------2-----|-----2-------2---------|--2-------2-------2-----|-----2-------2---------|
------------------------|-----------------------|------------------------|-----------------------|
------------------------|-----------------------|------------------------|-----------------------|
------------------------|-----------------------|------------------------|-----------------------|


  E  Q    E  Q    E  E     E  E  Q    E  Q.        E  Q    E  Q    E  E     E  E  Q     E  E  Q     
------------------------|-----------------------|------------------------|-------------------------|
-----3-------3-------3--|--L-----3-------3------|-----2-------2-------2--|--L-----2----------------|
--4-------4-------4-----|-----4-------4---------|--2-------2-------2-----|-----2-------11--9-------|
------------------------|-----------------------|------------------------|-------------11--9-------|
------------------------|-----------------------|------------------------|--------------9--7-------|
------------------------|-----------------------|------------------------|-------------------------|


   E  E  H.              E  E  Q    E  Q    E     E  E  Q    E  Q    E     E  E  Q    E  Q    E   
----------------------|------------------------|------------------------|------------------------|
----------------------|------------------------|------------------------|------------------------|
--11------------------|-----9--9----9--8----9--|--L--9--9----9--8----4--|--L--4--4----4--4----9--|
--11------------------|-----x--x----x--x----x--|-----x--x----x--x----x--|-----x--x----x--x----x--|
---9------------------|-----7--7----7--6----7--|--L--7--7----7--6----2--|--L--2--2----2--2----7--|
----------------------|------------------------|------------------------|------------------------|


  E  E  Q    E  Q    E     E  E  Q    E  Q    E     E  E  E  E  E  E  E  E   
------------------------|------------------------|--------------------------|
------------------------|------------------------|--------------------------|
--L--9--9----9--8----9--|--L--9--9----9--8----4--|--L--4--4-----4--4--4-----|
-----x--x----x--x----x--|-----x--x----x--x----x--|-----x--x-----x--x--x-----|
--L--7--7----7--6----7--|--L--7--7----7--6----2--|--L--2--2-----2--2--2-----|
------------------------|------------------------|--------------------------|


  E  E  E  E  E  E  E  E     E  E  Q    E  Q    E     E  E  Q    E  Q    E   
--------------------------|------------------------|------------------------|
--------------------------|------------------------|------------------------|
--4--4--4-----4--4--4--9--|--L--9--9----9--8----9--|--L--9--9----9--8----9--|
--x--x--x-----x--x--x--x--|-----x--x----x--x----x--|-----x--x----x--x----x--|
--2--2--2-----2--2--2--7--|--L--7--7----7--6----7--|--L--7--7----7--6----7--|
--------------------------|------------------------|------------------------|


  E  E  Q    E  Q    E     E  E  Q    E  Q    E     E  E  Q    E  Q    E     E  E  Q    E  Q    E   
------------------------|------------------------|------------------------|------------------------|
------------------------|------------------------|------------------------|------------------------|
--L--9--9----9--8----4--|--L--4--4----4--4----9--|--L--9--9----9--8----9--|--L--9--9----9--8----4--|
-----x--x----x--x----x--|-----x--x----x--x----x--|-----x--x----x--x----x--|-----x--x----x--x----x--|
--L--7--7----7--6----2--|--L--2--2----2--2----7--|--L--7--7----7--6----7--|--L--7--7----7--6----2--|
------------------------|------------------------|------------------------|------------------------|


  E  E  E  E  E  E  E  E     E  E  E  E  E  E  E  E     E  E  Q    E  Q    E   
--------------------------|--------------------------|------------------------|
--------------------------|--------------------------|------------------------|
--L--4--4-----4--4--4-----|--4--4--4-----4--4--4--9--|--L--9--9----9--8----9--|
-----x--x-----x--x--x-----|--x--x--x-----x--x--x--x--|-----x--x----x--x----x--|
--L--2--2-----2--2--2-----|--2--2--2-----2--2--2--7--|--L--7--7----7--6----7--|
--------------------------|--------------------------|------------------------|


  E  E  Q    E  Q    E     E  E  Q    E  Q    E     E  E  Q    E  Q    E     E  E  Q    E  Q    E   
------------------------|------------------------|------------------------|------------------------|
------------------------|------------------------|------------------------|------------------------|
--L--9--9----9--8----9--|--L--9--9----9--8----4--|--L--4--4----4--4----9--|--L--9--9----9--8----9--|
-----x--x----x--x----x--|-----x--x----x--x----x--|-----x--x----x--x----x--|-----x--x----x--x----x--|
--L--7--7----7--6----7--|--L--7--7----7--6----2--|--L--2--2----2--2----7--|--L--7--7----7--6----7--|
------------------------|------------------------|------------------------|------------------------|


  E  E  Q    E  Q    E     E  E  E  E  E  E  E  E     E  E  E  E  E  E  E  E   
------------------------|--------------------------|--------------------------|
------------------------|--------------------------|--------------------------|
--L--9--9----9--8----4--|--L--4--4-----4--4--4-----|--4--4--4-----4--4--4--9--|
-----x--x----x--x----x--|-----x--x-----x--x--x-----|--x--x--x-----x--x--x--x--|
--L--7--7----7--6----2--|--L--2--2-----2--2--2-----|--2--2--2-----2--2--2--7--|
------------------------|--------------------------|--------------------------|


  E  E  Q    E  Q    E     E  E  Q    E  Q    E     E  E  Q    E  Q    E     E  E  Q    E  Q    E   
------------------------|------------------------|------------------------|------------------------|
------------------------|------------------------|------------------------|------------------------|
--L--9--9----9--8----9--|--L--9--9----9--8----9--|--L--9--9----9--8----4--|--L--4--4----4--4----9--|
-----x--x----x--x----x--|-----x--x----x--x----x--|-----x--x----x--x----x--|-----x--x----x--x----x--|
--L--7--7----7--6----7--|--L--7--7----7--6----7--|--L--7--7----7--6----2--|--L--2--2----2--2----7--|
------------------------|------------------------|------------------------|------------------------|


  E  E  Q    E  Q    E     E  E  Q    E  Q    E     E  E  E  E  E  E  E  E   
------------------------|------------------------|--------------------------|
------------------------|------------------------|--------------------------|
--L--9--9----9--8----9--|--L--9--9----9--8----4--|--L--4--4-----4--4--4-----|
-----x--x----x--x----x--|-----x--x----x--x----x--|-----x--x-----x--x--x-----|
--L--7--7----7--6----7--|--L--7--7----7--6----2--|--L--2--2-----2--2--2-----|
------------------------|------------------------|--------------------------|


  E  E  E  E  E  E  E  E     E  Q    E  E  E  E  E     E  Q    E  E  E  E  E   
--------------------------|-------------------------|-------------------------|
--------------------------|-------------------------|-------------------------|
--4--4--4-----4--4--4-----|-------------------------|-------------------------|
--x--x--x-----x--x--x--4--|--L--4----4--7--7--7--4--|--L--4----4--9--9--9--4--|
--2--2--2-----2--2--2--4--|--L--4----4--7--7--7--4--|--L--4----4--9--9--9--4--|
-----------------------2--|--L--2----2--5--5--5--2--|--L--2----2--7--7--7--2--|


  E  Q    E  E  E  E  E      Q    H.             
--------------------------|--------------------||
--------------------------|--------------------||
--------------------------|--------------------||
--L--4----4--7--7--7--4\--|--L-----------------||
--L--4----4--7--7--7--4\--|--L-----------------||
--L--2----2--5--5--5--2\--|--L-----------------||




Guitar 2
                 PM PM PM PM PM PM PM PM    PM PM PM PM PM PM PM PM    PM PM PM PM PM PM PM PM  
     H           E  E  E  E  E  E  E  E     E  E  E  E  E  E  E  E     E  E  E  E  E  E  E  E   
E||-----------|--------------------------|--------------------------|--------------------------|
B||-----------|--------------------------|--------------------------|--------------------------|
G||-----------|--------------------------|--------------------------|--------------------------|
D||-----------|--------------------------|--------------------------|--9--9--9--9--9--9--9--9--|
A||-----------|--4--4--4--4--4--4--4--4--|--7--7--7--7--7--7--7--7--|--7--7--7--7--7--7--7--7--|
E||-----------|--2--2--2--2--2--2--2--2--|--5--5--5--5--5--5--5--5--|--------------------------|


  PM PM PM PM PM PM PM PM    PM PM PM PM PM PM PM PM    PM PM PM PM PM PM PM PM  
  E  E  E  E  E  E  E  E     E  E  E  E  E  E  E  E     E  E  E  E  E  E  E  E   
--------------------------|--------------------------|--------------------------|
--------------------------|--------------------------|--------------------------|
--------------------------|--------------------------|--------------------------|
--------------------------|--------------------------|--------------------------|
--9--9--9--9--9--9--9--9--|--4--4--4--4--4--4--4--4--|--7--7--7--7--7--7--7--7--|
--7--7--7--7--7--7--7--7--|--2--2--2--2--2--2--2--2--|--5--5--5--5--5--5--5--5--|


  PM PM PM PM PM PM PM PM    PM                                               
  E  E  E  E  E  E  E  E     E  Q.     E  Q    E     E  E  E  E  E  E  E  E   
--------------------------|-----------------------|--------------------------|
--------------------------|-----------------------|--------------------------|
--------------------------|-----------------------|--------------------------|
--------------------------|------------9--7----4--|--L--4--4--4--4--4--4--4--|
--9--9--9--9--9--9--9--9--|--9---------9--7----4--|--L--4--4--4--4--4--4--4--|
--7--7--7--7--7--7--7--7--|--7---------7--5----2--|--L--2--2--2--2--2--2--2--|


  E  E  E  E  E  E  E  E     E  E  E  E  E  E  E  E     E  E  E  E  E  E  E  E   
--------------------------|--------------------------|--------------------------|
--------------------------|--------------------------|--------------------------|
--------------------------|--9--9--9--9--9--9--9--9--|--------------------------|
--7--7--7--7--7--7--7--7--|--9--9--9--9--9--9--9--9--|--9--9--9--9--9--9--9--9--|
--7--7--7--7--7--7--7--7--|--7--7--7--7--7--7--7--7--|--9--9--9--9--9--9--9--9--|
--5--5--5--5--5--5--5--5--|--------------------------|--7--7--7--7--7--7--7--7--|


  E  E  E  E  E  E  E  E     E  E  E  E  E  E  E  E     E  E  E  E  E  E  E  E   
--------------------------|--------------------------|--------------------------|
--------------------------|--------------------------|--------------------------|
--------------------------|--------------------------|--------------------------|
--4--4--4--4--4--4--4--4--|--7--7--7--7--7--7--7--7--|--9--9--9--9--9--9--9--9--|
--4--4--4--4--4--4--4--4--|--7--7--7--7--7--7--7--7--|--9--9--9--9--9--9--9--9--|
--2--2--2--2--2--2--2--2--|--5--5--5--5--5--5--5--5--|--7--7--7--7--7--7--7--7--|


  E  E  E  E  E  E  E  E     E   E  E   E  E   E  E   E     E   E  E   E  E   E  E   E   
--------------------------|------------------------------|------------------------------|
--------------------------|------------------------------|------------------------------|
--------------------------|--9--11-----11-----11-----11--|-----11-----11-----11-----11--|
--9--9--9--9--9--9--9--9--|--9--11-----11-----11-----11--|-----11-----11-----11-----11--|
--9--9--9--9--9--9--9--9--|------------------------------|------------------------------|
--7--7--7--7--7--7--7--7--|------------------------------|------------------------------|


  E   E  E   E  E   E  E   E     E   E  E   E  E   E  E   E     E   E  E   E  E   E  E   E   
------------------------------|------------------------------|------------------------------|
------------------------------|------------------------------|------------------------------|
--9--11-----11-----11-----11--|-----11-----11-----11-----11--|--9--11-----11-----11-----11--|
--9--11-----11-----11-----11--|-----11-----11-----11-----11--|--9--11-----11-----11-----11--|
------------------------------|------------------------------|------------------------------|
------------------------------|------------------------------|------------------------------|


  E   E  E   E  E   E  E   E     E   E  E   E  E   E  E   E     E   E  E   E  E   E  E   E   
------------------------------|------------------------------|------------------------------|
------------------------------|------------------------------|------------------------------|
-----11-----11-----11-----11--|--9--11-----11-----11-----11--|-----11-----11-----11-----11--|
-----11-----11-----11-----11--|--9--11-----11-----11-----11--|-----11-----11-----11-----11--|
------------------------------|------------------------------|------------------------------|
------------------------------|------------------------------|------------------------------|


  W                   W                   W                   W                 
-------------------|-------------------|-------------------|-------------------|
-------------------|-------------------|-------------------|-------------------|
--7----------------|--L----------------|--9----------------|--L----------------|
--7----------------|--L----------------|--7----------------|--L----------------|
-------------------|-------------------|-------------------|-------------------|
-------------------|-------------------|-------------------|-------------------|


  E  E  E  E  E  E  E  E     E  E  E  E  E  E  E  E     E  E  E  E  E  E  E  E   
--------------------------|--------------------------|--------------------------|
--------------------------|--------------------------|--------------------------|
--------------------------|--------------------------|--9--9--9--9--9--9--9--9--|
--4--4--4--4--4--4--4--4--|--7--7--7--7--7--7--7--7--|--9--9--9--9--9--9--9--9--|
--4--4--4--4--4--4--4--4--|--7--7--7--7--7--7--7--7--|--7--7--7--7--7--7--7--7--|
--2--2--2--2--2--2--2--2--|--5--5--5--5--5--5--5--5--|--------------------------|


  E  E  E  E  E  E  E  E     E  E  E  E  E  E  E  E     E  E  E  E  E  E  E  E   
--------------------------|--------------------------|--------------------------|
--------------------------|--------------------------|--------------------------|
--------------------------|--------------------------|--------------------------|
--9--9--9--9--9--9--9--9--|--4--4--4--4--4--4--4--4--|--7--7--7--7--7--7--7--7--|
--9--9--9--9--9--9--9--9--|--4--4--4--4--4--4--4--4--|--7--7--7--7--7--7--7--7--|
--7--7--7--7--7--7--7--7--|--2--2--2--2--2--2--2--2--|--5--5--5--5--5--5--5--5--|


  E  E  E  E  E  E  E  E     E  E  E  E  E  E  E  E     E  E  E  E  E  E  E  E   
--------------------------|--------------------------|--------------------------|
--------------------------|--------------------------|--------------------------|
--------------------------|--------------------------|--------------------------|
--9--9--9--9--9--9--9--9--|--9--9--9--9--9--9--9--9--|--4--4--4--4--4--4--4--4--|
--9--9--9--9--9--9--9--9--|--9--9--9--9--9--9--9--9--|--4--4--4--4--4--4--4--4--|
--7--7--7--7--7--7--7--7--|--7--7--7--7--7--7--7--7--|--2--2--2--2--2--2--2--2--|


  E  E  E  E  E  E  E  E     E  E  E  E  E  E  E  E     E  E  E  E  E  E  E  E   
--------------------------|--------------------------|--------------------------|
--------------------------|--------------------------|--------------------------|
--------------------------|--9--9--9--9--9--9--9--9--|--------------------------|
--7--7--7--7--7--7--7--7--|--9--9--9--9--9--9--9--9--|--9--9--9--9--9--9--9--9--|
--7--7--7--7--7--7--7--7--|--7--7--7--7--7--7--7--7--|--9--9--9--9--9--9--9--9--|
--5--5--5--5--5--5--5--5--|--------------------------|--7--7--7--7--7--7--7--7--|


  E  E  E  E  E  E  E  E     E  E  E  E  E  E  E  E     E  E  E  E  E  E  E  E   
--------------------------|--------------------------|--------------------------|
--------------------------|--------------------------|--------------------------|
--------------------------|--------------------------|--------------------------|
--4--4--4--4--4--4--4--4--|--7--7--7--7--7--7--7--7--|--9--9--9--9--9--9--9--9--|
--4--4--4--4--4--4--4--4--|--7--7--7--7--7--7--7--7--|--9--9--9--9--9--9--9--9--|
--2--2--2--2--2--2--2--2--|--5--5--5--5--5--5--5--5--|--7--7--7--7--7--7--7--7--|


  E  E  E  E  E  E  E  E     W                   W                   W                 
--------------------------|-------------------|-------------------|-------------------|
--------------------------|-------------------|-------------------|-------------------|
--------------------------|-------------------|-------------------|-------------------|
--9--9--9--9--9--9--9--9--|-------------------|-------------------|-------------------|
--9--9--9--9--9--9--9--9--|-------------------|-------------------|-------------------|
--7--7--7--7--7--7--7--7--|-------------------|-------------------|-------------------|


  W                   E   E  E   E  E   E  E   E     E   E  E   E  E   E  E   E   
-------------------|------------------------------|------------------------------|
-------------------|------------------------------|------------------------------|
-------------------|--9--11-----11-----11-----11--|-----11-----11-----11-----11--|
-------------------|--9--11-----11-----11-----11--|-----11-----11-----11-----11--|
-------------------|------------------------------|------------------------------|
-------------------|------------------------------|------------------------------|


  E   E  E   E  E   E  E   E     E   E  E   E  E   E  E   E     E   E  E   E  E   E  E   E   
------------------------------|------------------------------|------------------------------|
------------------------------|------------------------------|------------------------------|
--9--11-----11-----11-----11--|-----11-----11-----11-----11--|--9--11-----11-----11-----11--|
--9--11-----11-----11-----11--|-----11-----11-----11-----11--|--9--11-----11-----11-----11--|
------------------------------|------------------------------|------------------------------|
------------------------------|------------------------------|------------------------------|


  E   E  E   E  E   E  E   E     E   E  E   E  E   E  E   E     E   E  E   E  E   E  E   E   
------------------------------|------------------------------|------------------------------|
------------------------------|------------------------------|------------------------------|
-----11-----11-----11-----11--|--9--11-----11-----11-----11--|-----11-----11-----11-----11--|
-----11-----11-----11-----11--|--9--11-----11-----11-----11--|-----11-----11-----11-----11--|
------------------------------|------------------------------|------------------------------|
------------------------------|------------------------------|------------------------------|


  W                   W                   W                   W                 
-------------------|-------------------|-------------------|-------------------|
-------------------|-------------------|-------------------|-------------------|
--7----------------|--L----------------|--9----------------|--L----------------|
--7----------------|--L----------------|--7----------------|--L----------------|
-------------------|-------------------|-------------------|-------------------|
-------------------|-------------------|-------------------|-------------------|


  E  E  E  E  E  E  E  E     E  E  E  E  E  E  E  E     E  E  E  E  E  E  E  E   
--------------------------|--------------------------|--------------------------|
--------------------------|--------------------------|--------------------------|
--------------------------|--------------------------|--9--9--9--9--9--9--9--9--|
--4--4--4--4--4--4--4--4--|--7--7--7--7--7--7--7--7--|--9--9--9--9--9--9--9--9--|
--4--4--4--4--4--4--4--4--|--7--7--7--7--7--7--7--7--|--7--7--7--7--7--7--7--7--|
--2--2--2--2--2--2--2--2--|--5--5--5--5--5--5--5--5--|--------------------------|


  E  E  E  E  E  E  E  E     E  E  E  E  E  E  E  E     E  E  E  E  E  E  E  E   
--------------------------|--------------------------|--------------------------|
--------------------------|--------------------------|--------------------------|
--------------------------|--------------------------|--------------------------|
--9--9--9--9--9--9--9--9--|--4--4--4--4--4--4--4--4--|--7--7--7--7--7--7--7--7--|
--9--9--9--9--9--9--9--9--|--4--4--4--4--4--4--4--4--|--7--7--7--7--7--7--7--7--|
--7--7--7--7--7--7--7--7--|--2--2--2--2--2--2--2--2--|--5--5--5--5--5--5--5--5--|


  E  E  E  E  E  E  E  E     E  E  E  E  E  E  E  E     E  E  E  E  E  E  E  E   
--------------------------|--------------------------|--------------------------|
--------------------------|--------------------------|--------------------------|
--------------------------|--------------------------|--------------------------|
--9--9--9--9--9--9--9--9--|--9--9--9--9--9--9--9--9--|--4--4--4--4--4--4--4--4--|
--9--9--9--9--9--9--9--9--|--9--9--9--9--9--9--9--9--|--4--4--4--4--4--4--4--4--|
--7--7--7--7--7--7--7--7--|--7--7--7--7--7--7--7--7--|--2--2--2--2--2--2--2--2--|


  E  E  E  E  E  E  E  E     E  E  E  E  E  E  E  E     E  E  E  E  E  E  E  E   
--------------------------|--------------------------|--------------------------|
--------------------------|--------------------------|--------------------------|
--------------------------|--9--9--9--9--9--9--9--9--|--------------------------|
--7--7--7--7--7--7--7--7--|--9--9--9--9--9--9--9--9--|--9--9--9--9--9--9--9--9--|
--7--7--7--7--7--7--7--7--|--7--7--7--7--7--7--7--7--|--9--9--9--9--9--9--9--9--|
--5--5--5--5--5--5--5--5--|--------------------------|--7--7--7--7--7--7--7--7--|


  E  E  E  E  E  E  E  E     E  E  E  E  E  E  E  E     E  E  E  E  E  E  E  E   
--------------------------|--------------------------|--------------------------|
--------------------------|--------------------------|--------------------------|
--------------------------|--------------------------|--------------------------|
--4--4--4--4--4--4--4--4--|--7--7--7--7--7--7--7--7--|--9--9--9--9--9--9--9--9--|
--4--4--4--4--4--4--4--4--|--7--7--7--7--7--7--7--7--|--9--9--9--9--9--9--9--9--|
--2--2--2--2--2--2--2--2--|--5--5--5--5--5--5--5--5--|--7--7--7--7--7--7--7--7--|


  E  E  E  E  E  E  E  E     W                   W                   W                 
--------------------------|-------------------|-------------------|-------------------|
--------------------------|-------------------|-------------------|-------------------|
--------------------------|-------------------|-------------------|-------------------|
--9--9--9--9--9--9--9--9--|-------------------|-------------------|-------------------|
--9--9--9--9--9--9--9--9--|-------------------|-------------------|-------------------|
--7--7--7--7--7--7--7--7--|-------------------|-------------------|-------------------|


  W                   W                   W                   W                   W                 
-------------------|-------------------|-------------------|-------------------|-------------------|
-------------------|-------------------|-------------------|-------------------|-------------------|
-------------------|-------------------|-------------------|-------------------|-------------------|
-------------------|-------------------|-------------------|-------------------|-------------------|
-------------------|-------------------|-------------------|-------------------|-------------------|
-------------------|-------------------|-------------------|-------------------|-------------------|


  E  E  E  E  E  E  E  E     E  E  E  E  E  E  E  E     E  E  E  E  E  E  E  E   
--------------------------|--------------------------|--------------------------|
--------------------------|--------------------------|--------------------------|
--------------------------|--------------------------|--------------------------|
--7--7--7--7--7-----7--7--|-----7--7-----7--7--7--7--|--4--4--4--4--4-----4--4--|
--5--5--5--5--5-----5--5--|-----5--5-----5--5--5--5--|--4--4--4--4--4-----4--4--|
--5--5--5--5--5-----5--5--|-----5--5-----5--5--5--5--|--2--2--2--2--2-----2--2--|


  E  E  E  E  E  E  E  E     E  E  E  E  E  E  E  E     E  E  E  E  E  E  E  E   
--------------------------|--------------------------|--------------------------|
--------------------------|--------------------------|--------------------------|
--------------------------|--------------------------|--------------------------|
-----4--4-----4--4--4--4--|--4--4--4--4--4-----4--4--|-----4--4-----4--4--4--4--|
-----4--4-----4--4--4--4--|--2--2--2--2--2-----2--2--|-----2--2-----2--2--2--2--|
-----2--2-----2--2--2--2--|--2--2--2--2--2-----2--2--|-----2--2-----2--2--2--2--|


  E  E  E  E  E  E  E  E     E  E  E  E  E  E  Q       E  E  H.            
--------------------------|-------------------------|---------------------|
--------------------------|-------------------------|---------------------|
--------------------------|-------------------------|---------------------|
--4--4--4--4--4-----4--4--|-----4--4-----4--2-------|--4------------------|
--4--4--4--4--4-----4--4--|-----4--4-----4--2-------|--4------------------|
--2--2--2--2--2-----2--2--|-----2--2-----2--0-------|--2------------------|


  E  E  E  E  E  E  E  E     E  E  E  E  E  E  E  E     E  E  E  E  E  E  E  E   
--------------------------|--------------------------|--------------------------|
--------------------------|--------------------------|--------------------------|
--------------------------|--9--9--9--9--9--9--9--9--|--------------------------|
--7--7--7--7--7--7--7--7--|--9--9--9--9--9--9--9--9--|--9--9--9--9--9--9--9--9--|
--7--7--7--7--7--7--7--7--|--7--7--7--7--7--7--7--7--|--9--9--9--9--9--9--9--9--|
--5--5--5--5--5--5--5--5--|--------------------------|--7--7--7--7--7--7--7--7--|


  E  E  E  E  E  E  E  E     E  E  E  E  E  E  E  E     E  E  E  E  E  E  E  E   
--------------------------|--------------------------|--------------------------|
--------------------------|--------------------------|--------------------------|
--------------------------|--------------------------|--------------------------|
--4--4--4--4--4--4--4--4--|--7--7--7--7--7--7--7--7--|--9--9--9--9--9--9--9--9--|
--4--4--4--4--4--4--4--4--|--7--7--7--7--7--7--7--7--|--9--9--9--9--9--9--9--9--|
--2--2--2--2--2--2--2--2--|--5--5--5--5--5--5--5--5--|--7--7--7--7--7--7--7--7--|


  E  E  E  E  E  E  E  E     E  E  E  E  E  E  E  E     E  E  E  E  E  E  E  E   
--------------------------|--------------------------|--------------------------|
--------------------------|--------------------------|--------------------------|
--------------------------|--------------------------|--------------------------|
--9--9--9--9--9--9--9--9--|--4--4--4--4--4--4--4--4--|--7--7--7--7--7--7--7--7--|
--9--9--9--9--9--9--9--9--|--4--4--4--4--4--4--4--4--|--7--7--7--7--7--7--7--7--|
--7--7--7--7--7--7--7--7--|--2--2--2--2--2--2--2--2--|--5--5--5--5--5--5--5--5--|


  E  E  E  E  E  E  E  E     E  E  E  E  E  E  E  E     E  E  E  E  E  E  E  E   
--------------------------|--------------------------|--------------------------|
--------------------------|--------------------------|--------------------------|
--9--9--9--9--9--9--9--9--|--------------------------|--------------------------|
--9--9--9--9--9--9--9--9--|--9--9--9--9--9--9--9--9--|--4--4--4--4--4--4--4--4--|
--7--7--7--7--7--7--7--7--|--9--9--9--9--9--9--9--9--|--4--4--4--4--4--4--4--4--|
--------------------------|--7--7--7--7--7--7--7--7--|--2--2--2--2--2--2--2--2--|


  E  E  E  E  E  E  E  E     E  E  E  E  E  E  E  E     E  E  E  E  E  E  E  E   
--------------------------|--------------------------|--------------------------|
--------------------------|--------------------------|--------------------------|
--------------------------|--------------------------|--------------------------|
--7--7--7--7--7--7--7--7--|--9--9--9--9--9--9--9--9--|--9--9--9--9--9--9--9--9--|
--7--7--7--7--7--7--7--7--|--9--9--9--9--9--9--9--9--|--9--9--9--9--9--9--9--9--|
--5--5--5--5--5--5--5--5--|--7--7--7--7--7--7--7--7--|--7--7--7--7--7--7--7--7--|


  E  E  E  E  E  E  E  E     E  E  E  E  E  E  E  E     E  E  E  E  E  E  E  E   
--------------------------|--------------------------|--------------------------|
--------------------------|--------------------------|--------------------------|
--------------------------|--------------------------|--9--9--9--9--9--9--9--9--|
--4--4--4--4--4--4--4--4--|--7--7--7--7--7--7--7--7--|--9--9--9--9--9--9--9--9--|
--4--4--4--4--4--4--4--4--|--7--7--7--7--7--7--7--7--|--7--7--7--7--7--7--7--7--|
--2--2--2--2--2--2--2--2--|--5--5--5--5--5--5--5--5--|--------------------------|


  E  E  E  E  E  E  E  E     E  E  E  E  E  E  E  E     E  E  E  E  E  E  E  E   
--------------------------|--------------------------|--------------------------|
--------------------------|--------------------------|--------------------------|
--------------------------|--------------------------|--------------------------|
--9--9--9--9--9--9--9--9--|--4--4--4--4--4--4--4--4--|--7--7--7--7--7--7--7--7--|
--9--9--9--9--9--9--9--9--|--4--4--4--4--4--4--4--4--|--7--7--7--7--7--7--7--7--|
--7--7--7--7--7--7--7--7--|--2--2--2--2--2--2--2--2--|--5--5--5--5--5--5--5--5--|


  E  E  E  E  E  E  E  E     E  E  E  E  E  E  E  E     E  E  E  E  E  E  E  E   
--------------------------|--------------------------|--------------------------|
--------------------------|--------------------------|--------------------------|
--------------------------|--------------------------|--------------------------|
--9--9--9--9--9--9--9--9--|--9--9--9--9--9--9--9--9--|--4--4--4--4--4--4--4--4--|
--9--9--9--9--9--9--9--9--|--9--9--9--9--9--9--9--9--|--4--4--4--4--4--4--4--4--|
--7--7--7--7--7--7--7--7--|--7--7--7--7--7--7--7--7--|--2--2--2--2--2--2--2--2--|


  E  E  E  E  E  E  E  E     E  E  E  E  E  E  E  E     E  E  E  E  E  E  E  E   
--------------------------|--------------------------|--------------------------|
--------------------------|--------------------------|--------------------------|
--------------------------|--9--9--9--9--9--9--9--9--|--------------------------|
--7--7--7--7--7--7--7--7--|--9--9--9--9--9--9--9--9--|--9--9--9--9--9--9--9--9--|
--7--7--7--7--7--7--7--7--|--7--7--7--7--7--7--7--7--|--9--9--9--9--9--9--9--9--|
--5--5--5--5--5--5--5--5--|--------------------------|--7--7--7--7--7--7--7--7--|


  E  E  E  E  E  E  E  E     E  E  E  E  E  E  E  E     E  E  E  E  E  E  E  E   
--------------------------|--------------------------|--------------------------|
--------------------------|--------------------------|--------------------------|
--------------------------|--------------------------|--------------------------|
--4--4--4--4--4--4--4--4--|--7--7--7--7--7--7--7--7--|--9--9--9--9--9--9--9--9--|
--4--4--4--4--4--4--4--4--|--7--7--7--7--7--7--7--7--|--9--9--9--9--9--9--9--9--|
--2--2--2--2--2--2--2--2--|--5--5--5--5--5--5--5--5--|--7--7--7--7--7--7--7--7--|


  E  E  E  E  E  E  E  E     E  Q    E  E  E  E  E     E  Q    E  E  E  E  E   
--------------------------|-------------------------|-------------------------|
--------------------------|-------------------------|-------------------------|
--------------------------|-------------------------|-------------------------|
--9--9--9--9--9--9--9--4--|--L--4----4--7--7--7--4--|--L--4----4--9--9--9--4--|
--9--9--9--9--9--9--9--4--|--L--4----4--7--7--7--4--|--L--4----4--9--9--9--4--|
--7--7--7--7--7--7--7--2--|--L--2----2--5--5--5--2--|--L--2----2--7--7--7--2--|


  E  Q    E  E  E  E  E      Q    H.             
--------------------------|--------------------||
--------------------------|--------------------||
--------------------------|--------------------||
--L--4----4--7--7--7--4\--|--L-----------------||
--L--4----4--7--7--7--4\--|--L-----------------||
--L--2----2--5--5--5--2\--|--L-----------------||




Duration Legend
---------------
W - whole
H - half
Q - quarter
E - 8th
S - 16th
T - 32nd
X - 64th
. - note dotted
|-n-|  - n-tuplets


Tablature Legend
----------------
L - tied note
x - dead note
g - grace note
(n) - ghost note
> - accentuded note
NH - natural harmonic
AH - artificial harmonic
TH - tapped harmonic
SH - semi harmonic
PH - pitch harmonic
h - hammer on
p - pull off
b - bend
br - bendRelease
pb - preBend
pbr - preBendRelease
brb - bendReleaseBend
\n/ - tremolo bar dip
\n - tremolo bar dive
-/n - tremolo bar Release up
/n\ - tremolo bar inverted dip
/n - tremolo bar return
-\n - tremolo bar Release down
S - shift slide
s - legato slide
/ -  slide into from below or out of upwards
\ -  slide into from above or out of downwards
~ - vibrato
W - wide vibrato
tr - trill
TP - tremolo picking
T - tapping
S - slap
P - pop
< - fade in
^ - brush up
v - brush down

Добавлено: 15.03.2012
Другие материалы по этой песне:

Страница создана 15.03.2012
http://primanota.ru/absent-minded/take-this-chance-chords.htm
Привет, Гость.
Предлагаем пройти революционный курс по гитаре.
Подарок от PrimaNota.Ru, забирай!