PrimaNota.ru - самый крупный в мире бесплатный архив песенных текстов, аккордов, табулатур и нот


Absent Minded - Start Over - бас-таба, видео

Регистрация Запомнить меня
Войти через:  Facebook Google Twitter Vk Yandex Mail.ru

Absent Minded - Start Over - бас-таба, видео

Печатать
Просмотров: 107
Song Title: Start Over
Band: Absent Minded (from Holland) {www.absentmindedmusic.com}
Player: Coen van Vliet
Album: The Color Between Black & White
Instrument: six-string bass (BEADGC)

Transcribed and Tabbed by: Saberrocks
Mail: damian666_1992@hotmail.com

You can also play all on 4 string. Just tune down; C F B E. then you have to play everything 2 frets lower.

Percussion begins

Fade in:
|-----------------------|
|-----------------------|
|-----------------------| 2x
|-----------------------|
|-----------------------|
|-7-5-5--5-7-5-5--5-5-5-|

Intro part 1 (1x)
|------------------------------------------------------------------|
|------------------------------------------------------------------|
|------------------------------------------------------------------|
|------------------------------------------------------------------|
|------------------------------------------------------------------|
|-7-7-7-7-7-7-7-7-7-7-7-7-7-7-7-7--5-5-5-5-5-5-5-5-5-5-5-5-5-5-5-5-|

Intro part 2 (1x)
|-------------------------------------------------------------------------|
|-------------------------------------------------------------------------|
|-------------------------------------------------------------------------|
|-------------------------------------------------------------------------|
|-------------------------------------------------------------------------|
|-7-7-7-7-7-7-7-7-7-7-7-7-7-7-7-7-10-10-10-10-10-10-10-10-5-5-5-5-5-5-5-5-|

Verse:
|----------------------------------|
|----------------------------------|
|----------------------------------| 2x
|----------------------------------|
|----------------------------------|
|-7-7-7-7-7-7-7-7--5-5-5-5-5-5-5-5-|

Bridge:
|----------------------------------|
|----------------------------------|
|----------------------------------| 1x
|----------------------------------|
|----------------------------------|
|-3-3-3-3-3-3-3-3--5-5-5-5-5-5-5-5-|

Verse:
|----------------------------------|
|----------------------------------|
|----------------------------------| 2x
|----------------------------------|
|----------------------------------|
|-7-7-7-7-7-7-7-7--5-5-5-5-5-5-5-5-|

Bridge:
|----------------------------------|
|----------------------------------|
|----------------------------------| 1x
|----------------------------------|
|----------------------------------|
|-3-3-3-3-3-3-3-3--5-5-5-5-5-5-5-5-|

Chorus (2x):
|-------------------------------------------------------------------------|
|-------------------------------------------------------------------------|
|-------------------------------------------------------------------------|
|-------------------------------------------------------------------------|
|-------------------------------------------------------------------------|
|-7-7-7-7-7-7-7-7-10-10-10-10-10-10-10-10-3-3-3-3-3-3-3-3-5-5-5-5-5-5-5-5-|

Bridge:
|------------------------------------------------------------------|
|------------------------------------------------------------------|
|------------------------------------------------------------------| 1x
|------------------------------------------------------------------|
|------------------------------------------------------------------|
|-7-7-7-7-7-7-7-7-7-7-7-7-7-7-7-7--5-5-5-5-5-5-5-5-5-5-5-5-5-5-5-5-|

Verse:
|----------------------------------|
|----------------------------------|
|----------------------------------| 2x
|----------------------------------|
|----------------------------------|
|-7-7-7-7-7-7-7-7--5-5-5-5-5-5-5-5-|

Bridge:
|----------------------------------|
|----------------------------------|
|----------------------------------| 3x
|----------------------------------|
|----------------------------------|
|-3-3-3-3-3-3-3-3--5-5-5-5-5-5-5-5-|

Chorus (4x):
|-------------------------------------------------------------------------|
|-------------------------------------------------------------------------|
|-------------------------------------------------------------------------|
|-------------------------------------------------------------------------|
|-------------------------------------------------------------------------|
|-7-7-7-7-7-7-7-7-10-10-10-10-10-10-10-10-3-3-3-3-3-3-3-3-5-5-5-5-5-5-5-5-|

Bridge (4x):
|---------------------------------|
|---------------------------------|
|---------------------------------|
|---------------------------------|
|---------------------------------|
|-7-7-7-7-7-7-7-7-3-3-3-3-5-5-5-5-|

Chorus part 1 (1x)
|------------------------------------------|
|------------------------------------------|
|------------------------------------------| 
|------------------------------------------|
|------------------------------------------|
|-7---10---3-3-3-3-3-3-3-3-5-5-5-5-5-5-5-5-|

Chorus part 2 (5x)
|-------------------------------------------------------------------------|
|-------------------------------------------------------------------------|
|-------------------------------------------------------------------------|
|-------------------------------------------------------------------------|
|-------------------------------------------------------------------------|
|-7-7-7-7-7-7-7-7-10-10-10-10-10-10-10-10-3-3-3-3-3-3-3-3-5-5-5-5-5-5-5-5-|

Outro:
|-----------------------|
|-----------------------|
|-----------------------| 1x
|-----------------------|
|-----------------------|
|-7-5-5--5-7-5-5--5-5-5-|
Добавлено: 21.02.2012
Другие материалы по этой песне:
  • Аккорды и текст

Страница создана 21.02.2012
http://primanota.ru/absent-minded/start-over-chords.htm
Привет, Гость.
Предлагаем пройти революционный курс по гитаре.
Подарок от PrimaNota.Ru, забирай!