PrimaNota.ru - самый крупный в мире бесплатный архив песенных текстов, аккордов, табулатур и нот


Absent Hearts - Whispers Of A Sleepwalker - аккорды и текст, видео

Регистрация Запомнить меня
Войти через:  Facebook Google Twitter Vk Yandex Mail.ru

Absent Hearts - Whispers Of A Sleepwalker - аккорды и текст, видео

Печатать
Просмотров: 90
Whispers Of A Sleepwalker
Absent Hearts
----(SOME) TABS----
Intro tab:
D|------------------|-----------------|-----------------|--------------------||
A|------------------|-----------------|-----------------|--------------------||
F|-----8----6-----4-|/6---------------|-----8---6-----4-|/6/8\4------------o-||
c|---6----4-----2---|-----------------|---6---4-----2---|------------------o-||
G|-4----------0-----|-----------------|-4---------0-----|--------------------||
C|------------------|-----------------|-----------------|--------------------||
   1   2    3   4     1   2   3   4     1   2   3   4     1   2    3    4   
   Bm     Em  G                         Bm    Em  G                A

Intro Part 2:
                   ____________________  _________________
                   1/2/3.              ||4.
D|-----------------|-----7p4-----------||---------4-------|
A|-----------------|---5-----5-----7---||-------7---------|
F|-----8---6-----4-|/6---------6/8---o-||/6/8\4-----6\4---|
c|---6---4-----2---|-----------------o-||-----------------|
G|-4---------0-----|-------------------||-----------------|
C|-----------------|-------------------||-----------------|
   1   2   3   4     1   2   3   4        1   2    3   4
   Bm    Em  G         D/A   D   A/C#       A

--END (SOME) TABS--


ORDER: I V1 C V2 C O


[INTRO]
Bm  Em  G |             |
Bm  Em  G |      A      | 
Bm  Em  G |             |
Bm  Em  G |      A      |
Bm  Em  G | D/A  D A/C# |
Bm  Em  G | A           |


[VERSE 1]
Bm7 Gsus2         A
          Sleepwalker
Bm7 Gsus2                A    Bm7   Gsus2
          The lights you see (Burnt out  feel - 
                              Bm7  Gsus2 B7sus4/E
          Are shining   on for - ever 
                   - ing )
          Bm7    Gsus2
         (Caught by   no - 
                       A
          You'll    be home 
               - one) 
Bm7 Gsus2             A
          before they know
Bm7 Gsus2          A     Bm7   Gsus2 B7sus4/E 
          Fading into hea - ven 


[CHORUS 1]
Em              D7sus2/C
Peaceful slumber 
                 Em        D7sus2/C
You beckon me to hide away 
         Em           D7sus2/C
Will you pull me under 
                 Em          D7sus2/C
Before I wake to find myself here     again 


[VERSE 2]
            Bm7  Gsus2          A
          Tonight     I'll shy away 
Bm7 Gsus2           A Bm7
          Before you  go 
    Gsus2              A
          And lead me astray 
Bm7           Gsus2 B7sus4/E
         (The shaman        comes) 
Bm7 Gsus2         A
          I don't know
Bm7 Gsus2           A   Bm7
          if life is  here 
    Gsus2         A    Bm7 Gsus2 B7sus4/E
          Stuck in time. 

[CHORUS 2]
Bm7           D7sus2/C
   Sleep again 

   I hope you're holding on 
Bm7            D7/C
   If so, I forev - er will 
Bm7        D7sus2/C                 Bm7
   Make my way     down through the lights
            D7sus2/C   Bm7    D7/C
   Will you hide     tonight?


[OUTRO]
G/A Bm7/E 
G/A Bm7/E 
G/A Bm7/E 
G/A Bm7/E 

G/A Bm7/E 
G/A Bm7/E 
G/A Bm7/E 
G/A Bm7/E

G/A Bm7/E 
G/A Bm7/E 
Добавлено: 27.12.2015
Вам также может быть интересно:
Другие материалы по этой песне:
  • Аккорды и текст

Страница создана 27.12.2015
http://primanota.ru/absent-hearts/whispers-of-a-sleepwalker-chords.htm
Привет, Гость.
Предлагаем пройти революционный курс по гитаре.
Подарок от PrimaNota.Ru, забирай!