PrimaNota.ru - самый крупный в мире бесплатный архив песенных текстов, аккордов, табулатур и нот


Absent Hearts - City Of Glass - таба, видео

Регистрация Запомнить меня
Войти через:  Facebook Google Twitter Vk Yandex Mail.ru

Absent Hearts - City Of Glass - таба, видео

Печатать
Просмотров: 91
[LICK #1]/Intro
                            x20
D|-------------------10-9-----||
A|-12------10---12--------10--||
F|----9-11----9----9--------o-||
c|--------------------------o-||
G|----------------------------||
C|----------------------------||
   1  + 2  +  3 +  4 +  5 +


[LICK #2]/Idea 1 - lead/rhythm

Lead
 Tapping and sliding through this entire section and part.
D|--------------19---17/19---|-------22-----------------|
A|-12-5-10-12-5----5-------5-|-8-7-5----5-15-5-15/17/19-|
F|---------------------------|--------------------------|
c|---------------------------|--------------------------|
G|---------------------------|--------------------------|
C|---------------------------|--------------------------|
   1  + 2  +  3 +  4 +  5  +   1 + 2 +  3 +  4 +  5  +

                                                          x8
D|---------------------------|----------------------------||
A|\17-5-15/17-5-17-5-15/17-5-|-17-5-15/17-5-19-5-15/17-5--||
F|---------------------------|--------------------------o-||
c|---------------------------|--------------------------o-||
G|---------------------------|----------------------------||
C|---------------------------|----------------------------||
   1  + 2  +  3 +  4 +  5  +   1  + 2  +  3 +  4 +  5  +

Rhythm
                                                  x4
D|-----------|-----------|-----------|------------||
A|-----------|-----------|-----------|------------||
F|-----------|-----------|-----------|----------o-||
c|-5---------|-7---------|-2---------|----------o-||
G|-5---------|-7---------|-2---------|------------||
C|-5---------|-7---------|-2---------|------------||
   1 2 3 4 5   1 2 3 4 5   1 2 3 4 5   1 2 3 4 5 

                                                                                          x4
D|---------------------|---------------------|---------------------|----------------------||
A|---------------------|---------------------|---------------------|----------------------||
F|---------------------|-------7-------7-6---|---------------------|--------------------o-||
c|-------7-------7-9---|---------------------|---------------------|--------------------o-||
G|---------------------|-0-0-0-----0---------|---------------------|----------------------||
C|-5~--5-----5-------5-|-------------------0-|-2~----2---0-5-4-2-0-|-2~----2---0-5-4-2-0--||
   1 + 2 + 3 + 4 + 5 +   1 + 2 + 3 + 4 + 5 +   1 + 2 + 3 + 4 + 5 +   1 + 2 + 3 + 4 + 5 +


[INTERLUDE 1]

D|---------------------------|---------------------------|
A|\17-5-15/17-5-17-5-15/17-5-|-17-5-15/17-5-19-5-15/17-5-|
F|---------------------------|---------------------------|
c|---------------------------|---------------------------|
G|---------------------------|---------------------------|
C|---------------------------|---------------------------|
   1  + 2  +  3 +  4 +  5  +   1  + 2  +  3 +  4 +  5  +


[LICK #3]/Idea 2
[ V1 V2 V3 ] x2 as written

Variation 1

D|--------------------10-|----12-10----12-10------|
A|--------------10-------|-10-------10-------10---|
F|-11----9-11------------|------------------------|
c|----12-----------12----|------------------------|
G|-----------------------|------------------------|
C|-----------------------|------------------------|
   1  +  2 +  3 +  4  +    1  +  2  +  3  +  4  + 

D|--------------------10-|----12-10----10-9-------|
A|--------------10-------|-10-------10------12-10-|
F|-11----9-11------------|------------------------|
c|----12-----------12----|------------------------|
G|-----------------------|------------------------|
C|-----------------------|------------------------|
   1  +  2 +  3 +  4  +    1  +  2  +  3  + 4  + 


Variation 2

D||----------------------10-|----12-10----12-10------|
A||----------------10-------|-10-------10-------10---|
F||-o-------9-11------------|------------------------|
c||-o-12-12-----------12----|------------------------|
G||-------------------------|------------------------|
C||-------------------------|------------------------|
      1  +  2 +  3 +  4  +    1  +  2  +  3  +  4  + 

                                                    x2
D|--------------------10-|----12-10----10-9---------||
A|--------------10-------|-10-------10------12-10---||
F|-11----9-11------------|------------------------o-||
c|----12-----------12----|------------------------o-||
G|-----------------------|--------------------------||
C|-----------------------|--------------------------||
   1  +  2 +  3 +  4  +    1  +  2  +  3  + 4  + 


Variation 3

D|--------------------10-|----12-10----12-10------|
A|--------------10-------|-10-------10-------10---|
F|-------9-11------------|------------------------|
c|-12-12-----------12----|------------------------|
G|-----------------------|------------------------|
C|-----------------------|------------------------|
   1  +  2 +  3 +  4  +    1  +  2  +  3  +  4  + 

D|--------------------10-|----12-10----12-14-14~--|
A|--------------10-------|-10-------10------------|
F|-11----9-11------------|------------------------|
c|----12-----------12----|------------------------|
G|-----------------------|------------------------|
C|-----------------------|------------------------|
   1  +  2 +  3 +  4  +    1  +  2  +  3  +  4  + 


[INTERLUDE 2]

8 measures of 4/4
7 measures of 5/4
1 measure  of 6/4
(73 beats total; 6*12, do not play on the final beat)

Lead (pan left)
                                                         x6
D|-----------------|-----------------|-------------------||
A|-----7-----7-----|-7-----7-----7---|---7-----7-----7---||
F|-7-9---7-9---7-9-|---7-9---7-9---7-|-9---7-9---7-9---o-||
c|-----------------|-----------------|-----------------o-||
G|-----------------|-----------------|-------------------||
C|-----------------|-----------------|-------------------||
   1 + 2 + 3 + 4 +   1 + 2 + 3 + 4 +   1 + 2 + 3 + 4 +

Lead 2 (pan right)
                                                                 x6
D|-10-----10-----10---|---10-----10-----10-|-----10-----10-------||
A|----8-7----8-7----8-|-7----8-7----8-7----|-8-7----8-7----8-7---||
F|--------------------|--------------------|-------------------o-||
c|--------------------|--------------------|-------------------o-||
G|--------------------|--------------------|---------------------||
C|--------------------|--------------------|---------------------||
   1  + 2 +  3 + 4  +   1 +  2 + 3  + 4 +    1 + 2  + 3 +  4 +


Rhythm
                                             x7
D|---------------------|----------------------||-------------------------|
A|---------------------|----------------------||-------------------------|
F|---------------------|--------------------o-||-------------------------|
c|---------------------|--------------------o-||-------------------------|
G|---------------------|----------------------||-------------------------|
C|-2~----2---0-5-4-2-0-|-2~----2---0-5-4-2-0--||-2~----2---0-------------|
   1 + 2 + 3 + 4 + 5 +   1 + 2 + 3 + 4 + 5 +     1 + 2 + 3 + 4 + 5 + 6 +



[LICK #3]/Idea 3

Lead

D|-12-------12-------12-------12-------|-14-------14-------14-------14-------|
A|----15-------15-------15-------15----|----15-------15-------15-------15----|
F|-------14-------14-------14-------14-|-------14-------14-------14-------14-|
c|-------------------------------------|-------------------------------------|
G|-------------------------------------|-------------------------------------|
C|-------------------------------------|-------------------------------------|
   1  +  2  +  3  +  4  +  5  +  6  +    1  +  2  +  3  +  4  +  5  +  6  +

                                                                               x4
D|-17-------17----14-17----14----------|-14-------14-------14-------14---------||
A|----15-------15-------17----17----17-|----17-------17-------17-------17------||
F|-------14----------------------14----|-------14-------14-------14-------14-o-||
c|-------------------------------------|-------------------------------------o-||
G|-------------------------------------|---------------------------------------||
C|-------------------------------------|---------------------------------------||
   1  +  2  +  3  +  4  +  5  +  6  +    1  +  2  +  3  +  4  +  5  +  6  +

Rhythm

D|-0-----0-----0-0---0---0-|-0-----0-----0-0---0---0--|
A|-0-----0-----0-0---0---0-|-3-----3-----3-3---3---3--|
F|-7-----7-----7-7---7---7-|-2-----2-----2-2---2---2--|
c|-7-----7-----7-7---7---7-|-0-----0-----0-0---0---0--|
G|-5-----5---5-5-5---5---5-|-0-----0-----0-0---0---0--|
C|-5-----5---5-5-5---5---5-|-4-----4---4-4-4---4---4--|
   1 + 2 + 3 + 4 + 5 + 6 +   1 + 2 + 3 + 4 + 5 + 6 +
                                                       x4
D|-0-----0-----0-0---0---0-|-0-----0-----0-0---0---0---||
A|-3-----3-----3-3---3---3-|-3-----3-----3-3---3---3---||
F|-2-----2-----2-2---2---2-|-2-----2-----2-2---2---2-o-||
c|-4-----4-----4-4---4---4-|-4-----4-----4-4---4---4-o-||
G|-0-----0---0-0-0---0---0-|-0-----0---0-0-0---0---0---||
C|-0-----0---0-0-0---0---0-|-0-----0---0-0-0---0---0---||
   1 + 2 + 3 + 4 + 5 + 6 +   1 + 2 + 3 + 4 + 5 + 6 +


Solo (final 8 measures + first measure of next section)

D|-14pb15-----15-br14-14~--------\-|---9/-15-14----------------------|
A|---------------------------------|------------15---/17-----15------|
F|---------------------------------|---------------14-------------14-|
c|---------------------------------|---------------------------------|
G|---------------------------------|---------------------------------|
C|---------------------------------|---------------------------------|
       1  + 2 +  3 +  4  + 5 + 6 +   1 +  2  +  3  +  4  + 5 +  6 +

D|------------------------------------|-------------------------|
A|------------------------------------|-------------------------|
F|------12-11----------11-------------|-------------------------|
c|---12-------14-12-14----12------/12\|-7---9\4-----------------|
G|---------------------------12~------|-----------7/9\5-5-------|
C|------------------------------------|-------------------7~----|
   1 +  2  +  3  +  4  +  5  +  6  +    1 + 2 + 3 + 4 + 5 + 6 +

D|---------------------------|-----------------------------|
A|---------------------------|-----------------------------|
F|---------------7-7/14---11-|-11---7-9-7-7/\11-----9/11\7-|
c|-------------4-------------|-----------------------------|
G|-----------0---------------|-----------------------------|
C|---------------------------|-----------------------------|
   1 + 2 + 3 + 4 + 5 +  6 +    1  + 2 + 3 +  4  + 5 + 6  +

D|-------------------/10-----|/12----/14----/17----/24-----|-24b26~---------------|
A|----/10--------------------|-----------------------------|----------------------|
F|-x-------------------------|-----------------------------|----------------------|
c|---7-----------------------|-----------------------------|----------------------|
G|---------------------------|-----------------------------|----------------------|
C|---------------------------|-----------------------------|----------------------|
   1 + 2  + 3 + 4 + 5 +  6 +   1  + 2 +  3 + 4  + 5 +  6 +   1  + 2 + 3 + 4 + 5 +


[LICK #4]

Lead

D|-19-------------------|-17-------------------|----------------------|---------------------|
A|-/--------------------|-/--------------------|-17-------------------|---------------------|
F|-/--------------------|-/--------------------|-/--------------------|---------------------|
c|----------------------|----------------------|-/--------------------|---------------------|
G|----------------------|----------------------|----------------------|---------------------|
C|----------------------|----------------------|----------------------|---------------------|
   1  + 2 + 3 + 4 + 5 +   1  + 2 + 3 + 4 + 5 +   1  + 2 + 3 + 4 + 5 +   1 + 2 + 3 + 4 + 5 +

D|-19-------------------|-22-------------------|-24-------------------|----------------------||
A|-/--------------------|-/--------------------|-/--------------------|----------------------||
F|-/--------------------|-/--------------------|-/--------------------|--------------------o-||
c|----------------------|----------------------|----------------------|--------------------o-||
G|----------------------|----------------------|----------------------|----------------------||
C|----------------------|----------------------|----------------------|----------------------||
   1  + 2 + 3 + 4 + 5 +   1  + 2 + 3 + 4 + 5 +   1  + 2 + 3 + 4 + 5 +   1 + 2 + 3 + 4 + 5 +


Rhythm
                                                                                          x4
D|---------------------|---------------------|---------------------|----------------------||
A|---------------------|---------------------|---------------------|----------------------||
F|---------------------|-------7-------7-6---|---------------------|--------------------o-||
c|-------7-------7-9---|---------------------|---------------------|--------------------o-||
G|---------------------|-0-0-0-----0---------|---------------------|----------------------||
C|-5~--5-----5-------5-|-------------------0-|-2~----2---0-5-4-2-0-|-2~----2---0-5-4-2-0--||
   1 + 2 + 3 + 4 + 5 +   1 + 2 + 3 + 4 + 5 +   1 + 2 + 3 + 4 + 5 +   1 + 2 + 3 + 4 + 5 +

                             x16
D|-------------------10-9-----||
A|-12------10---12--------10--||
F|----9-11----9----9--------o-||
c|--------------------------o-||
G|----------------------------||
C|----------------------------||
   1  + 2  +  3 +  4 +  5 +


[OUTRO]

Lead (pan left)
                                                         x5
D|-----------------|-----------------|-------------------||
A|-----7-----7-----|-7-----7-----7---|---7-----7-----7---||
F|-7-9---7-9---7-9-|---7-9---7-9---7-|-9---7-9---7-9---o-||
c|-----------------|-----------------|-----------------o-||
G|-----------------|-----------------|-------------------||
C|-----------------|-----------------|-------------------||
   1 + 2 + 3 + 4 +   1 + 2 + 3 + 4 +   1 + 2 + 3 + 4 +

Lead 2 (pan right)
                                                                 x5
D|-10-----10-----10---|---10-----10-----10-|-----10-----10-------||
A|----8-7----8-7----8-|-7----8-7----8-7----|-8-7----8-7----8-7---||
F|--------------------|--------------------|-------------------o-||
c|--------------------|--------------------|-------------------o-||
G|--------------------|--------------------|---------------------||
C|--------------------|--------------------|---------------------||
   1  + 2 +  3 + 4  +   1 +  2 + 3  + 4 +    1 + 2  + 3 +  4 +


************************************

| /   slide up
| \   slide down
| h   hammer-on
| p   pull-off
| ~   vibrato
| +   harmonic
| x   Mute note
| b   Bend
| pb  Pre-bend
| br  Bend release

| /   Tremolo picking
| /

************************************
Добавлено: 27.12.2015
Вам также может быть интересно:
Другие материалы по этой песне:
  • Аккорды и текст

Страница создана 27.12.2015
http://primanota.ru/absent-hearts/city-of-glass-chords.htm
Привет, Гость.
Предлагаем пройти революционный курс по гитаре.
Подарок от PrimaNota.Ru, забирай!