PrimaNota.ru - самый крупный в мире бесплатный архив песенных текстов, аккордов, табулатур и нот


Abrasive Wheels - Vicious Circle - таба, видео

Регистрация Запомнить меня
Войти через:  Facebook Google Twitter Vk Yandex Mail.ru

Abrasive Wheels - Vicious Circle - таба, видео

Печатать
Просмотров: 102
Авторы: Shonna, Dave Ryan

 This is an awesome song.  Here you go.

intro
------------------------------------|
------------------------------------|
------------------------------------|
9---7---5---4-----9---7---5---4-----|
7---5---3---2-----7---5---3---2-----|
------------------------------------|

verse
-----------------------------------------------------------|
-----------------------------------------------------------|
-----------------------------------------------------------|
9-7-9-9-9-7-9-7-x2---5-(hold)--------------5-(hold)--------|
7-5-7-7-7-5-7-5------3-(hold)--------------3-(hold)--------|
-----------------------------------------------------------|
                     Forgotten youth just  Sniffing glue to
                     waste away...         face the day

-----------------------------------------------------------|
-----------------------------------------------------------|
-----------------------------------------------------------|
9-7-9-9-9-7-9-7-x2---5-(hold)--------------5-(hold)--------|
7-5-7-7-7-5-7-5------3-(hold)--------------3-(hold)--------|
-----------------------------------------------------------|
                     Walking streets     Government schemes
                     signing on...       go on and on

prechorus
-----------------------------------------------------------|
-----------------------------------------------------------|
-----------------------------------------------------------|
9-7-9-9-9-7-9-7--x2------9----7----5----4------------------|
7-5-7-7-7-5-7-5----------7----5----3----2------------------|
-----------------------------------------------------------|
                         Oooooooohhhhhhhhhhhhhhhhh...


chorus (x2)
--------------------------------------------
--------------------------------------------
--------------------------------------------
9--------------7-------------5--------------
7--------------5-------------3--------------
--------------------------------------------
 it's no use!   it's no use!  it's no use!   
(it's no use!) (it's no use!)(it's no use!) 

----------------------------|
----------------------------|
----------------------------|
9--7--9--7--5--7--4---------|
7--5--7--5--3--5--2---------|
----------------------------|
No-o--o--o--o--o------------|oooo!!!!!

end chorus

-----------------------------------------------------------|
-----------------------------------------------------------|
-----------------------------------------------------------|
9--------------7-------------5--------------4--------------|
7--------------5-------------3--------------2--------------|
-----------------------------------------------------------|

-----------------------------------------------------------|
-----------------------------------------------------------|
-----------------------------------------------------------|
9-7-9-9-9-7-9-7--x2--5-(hold)--------------5-(hold)--------|
7-5-7-7-7-5-7-5------3-(hold)--------------3-(hold)--------|
-----------------------------------------------------------|
                     Round and round       I try to get up,
                     I'm upside down       you kick me down

-----------------------------------------------------------|
-----------------------------------------------------------|
-----------------------------------------------------------|
9-7-9-9-9-7-9-7--x2--5-(hold)--------------5-(hold)--------|
7-5-7-7-7-5-7-5------3-(hold)--------------3-(hold)--------|
-----------------------------------------------------------|
                     Vicious circle        Around my neck
                     there's no hope       your like a rope

prechorus
-----------------------------------------------------------|
-----------------------------------------------------------|
-----------------------------------------------------------|
9-7-9-9-9-7-9-7--x2------9----7----5----4------------------|
7-5-7-7-7-5-7-5----------7----5----3----2------------------|
-----------------------------------------------------------|
                         Oooooooohhhhhhhhhhhhhhhhh...


chorus (x2)
--------------------------------------------
--------------------------------------------
--------------------------------------------
9--------------7-------------5--------------
7--------------5-------------3--------------
--------------------------------------------
 it's no use!   it's no use!  it's no use!   
(it's no use!) (it's no use!)(it's no use!) 


----------------------------|
----------------------------|
----------------------------|
9--7--9--7--5--7--4---------|
7--5--7--5--3--5--2---------|
----------------------------|
No-o--o--o--o--o------------|oooo!!!!!

end chorus

-----------------------------------------------------------|
-----------------------------------------------------------|
-----------------------------------------------------------|
9--------------7-------------5--------------4--------------|
7--------------5-------------3--------------2--------------|
-----------------------------------------------------------|

-----------------------------------------------------------|
-----------------------------------------------------------|
-----------------------------------------------------------|
9-7-9-9-9-7-9-7--x2---9----7----5----4---x2----------------|
7-5-7-7-7-5-7-5-------7----5----3----2---------------------|
-----------------------------------------------------------|

solo

7-(hold)---------------------------------------------------|
--------------10---8---7---8-------10b12--8---5---8--------|
-----------------------------------------------------------|
-----------------------------------------------------------|
-----------------------------------------------------------|
-----------------------------------------------------------|

-----------------------------------------------------------|
10---8---7---8-------10b12--8---5---8----------------------|
-----------------------------------------------------------|
-----------------------------------------------------------|
-----------------------------------------------------------|
-----------------------------------------------------------|

end solo

------------------------------------------------------------|
------------------------------------------------------------|
------------------------------------------------------------|
9-7-9-9-9-7-9-7--x2--5-(hold)---------------5-(hold)--------|
7-5-7-7-7-5-7-5------3-(hold)---------------3-(hold)--------|
------------------------------------------------------------|
                    Staticians, politicians |We're all caught up
                    you feed us crap        |in a rat trap

------------------------------------------------------------|
------------------------------------------------------------|
------------------------------------------------------------|
9-7-9-9-9-7-9-7--x2--5-(hold)---------------5-(hold)--------|
7-5-7-7-7-5-7-5------3-(hold)---------------3-(hold)--------|
------------------------------------------------------------|
                     Rigmarole              Am I alive?
                     on the dole            I don't know

prechorus
-----------------------------------------------------------|
-----------------------------------------------------------|
-----------------------------------------------------------|
9-7-9-9-9-7-9-7--x2------9----7----5----4------------------|
7-5-7-7-7-5-7-5----------7----5----3----2------------------|
-----------------------------------------------------------|
                         Oooooooohhhhhhhhhhhhhhhhh...


chorus (x2)
--------------------------------------------
--------------------------------------------
--------------------------------------------
9--------------7-------------5--------------
7--------------5-------------3--------------
--------------------------------------------
 it's no use!   it's no use!  it's no use!   
(it's no use!) (it's no use!)(it's no use!) 

----------------------------|
----------------------------|
----------------------------|
9--7--9--7--5--7--4---------|
7--5--7--5--3--5--2---------|
----------------------------|
No-o--o--o--o--o------------|oooo!!!!!

end chorus

-----------------------------------------------------------|
-----------------------------------------------------------|
-----------------------------------------------------------|
9--------------7-------------5--------------4--------------|
7--------------5-------------3--------------2--------------|
-----------------------------------------------------------|

-----------------------------------------------------------|
-----------------------------------------------------------|
-----------------------------------------------------------|
9-7-9-9-9-7-9-7--x2--9-9--7-7--9-7-9-----------------------|
7-5-7-7-7-5-7-5------7-7--5-5--7-5-7-----------------------|
-----------------------------------------------------------|

whew... good luck!

http://www.abrasivepunk.com/
Добавлено: 06.03.2012
Вам также может быть интересно:
Другие материалы по этой песне:
  • Аккорды и текст

Страница создана 06.03.2012
http://primanota.ru/abrasive-wheels/vicious-circle-chords.htm
Привет, Гость.
Предлагаем пройти революционный курс по гитаре.
Подарок от PrimaNota.Ru, забирай!