PrimaNota.ru - самый крупный в мире бесплатный архив песенных текстов, аккордов, табулатур и нот


Aborym - Our Sentence - таба, видео

Регистрация Запомнить меня
Войти через:  Facebook Google Twitter Vk Yandex Mail.ru

Aborym - Our Sentence - таба, видео

Печатать
Просмотров: 150
                         Aborym - Our Sentence
                     From the Album - Fire Walk With Us!
              Copyright 2001 - Mercenary Musik
                     Version 1.0 - August- 2002
Transcribed by: Mike B. 

For Questions, Comments, Newest Version, or Corrections contact
Steve S.: at Setherial99@AOL.com

..  - palm mute          /  - slide up to
\  - slide down to      ~  - vibrato
h  - hammer on          b  - bend
p  - pull off            Suffixes for bend
                          ph - pinch harmonic
                           f - full bend    h - half bend
*  - see comment           r - release      t - tap bend
X  - percussion mute       ~ - vibrato bend
@  - slight palm mute     () - ghost note, sustained note

Standard E tuning

Our Sentence

Riff A
|---------------------|----------------------------------------------|
|--13\12-121212121212-|--13\12-121212-1111111111---------------------|
|--x--x--x-x-x-x-x-x--|--x--x--x-x-x--x-x-x-x-x----------------------|
|--10\9--9-9-9-9-9-9--|--10\9--9-9-9--8-8-8-8-8----------------------| 
|---------------------|----------------------------------------------|
|---------------------|----------------------------------------------|
|                                                                    |
|--------------------------------------------------------------------|
|--13\12-121212-13\12-12121212121212---------------------------------|
|--x--x--x-x-x--x--x--x-x-x-x-x-x-x----------------------------------| 
|--10\9--9-9-9--10\9--9-9-9-9-9-9-9----------------------------------| 
|------------------------------------------5-------5-----------------|
|-------------------------------------7-7--7--7-7--7-----------------|

Riff B           (1,2,3,5,&6)                                   (4&8)
|----------------------------|---------------------------------------|
|--13\12---------------------|--111111111111111111111111-------------|
|--x--x----------------------|--x-x-x-x-x-x-x-x-x-x-x-x--------------|
|--10\9----------------------|--8-8-8-8-8-8-8-8-8-8-8-8--------------| 
|----------------------------|---------------------------------------|
|---------0-0-0-0-0-0-0-0-0--|---------------------------------------|
|                                                                 (7)|
|--------------------------------------------------------------------|
|--121212121212121212121212------------------------------------------|
|--x-x-x-x-x-x-x-x-x-x-x-x-------------------------------------------|
|--9-9-9-9-9-9-9-9-9-9-9-9-------------------------------------------| 
|--------------------------------------------------------------------|
|--------------------------------------------------------------------|

Riff C 
|----------------------|------------------------|--------------------|
|----------------------|------------------------|--------------------|
|--9-\-----------------|--9\8--9\8--------------|--12----------------|
|--x-------------------|--x-x--x-x--------------|--x-----------------|
|--7-\-----------------|--7\6--7\6--------------|--10----------------|
|-------0-0--0-0--0-0--|------------0--0-0-0-0--|--------------------|
|       . .  . .  . .               .  . . . .                       |
|                                                               (1&3)|
|----------------------------||---------------------------|----------|
|----------------------------||---------------------------|----------|
|--111111111111111111111111--||-161616161616161616161616--|----------|
|--x-x-x-x-x-x-x-x-x-x-x-x---||-x-x-x-x-x-x-x-x-x-x-x-x---|----------|
|--9-9-9-9-9-9-9-9-9-9-9-9---||-141414141414141414141414--|----------|
|----------------------------||---------------------------|-0-0-0-0-0|
|                                                           . . . . .|
| (2&4)                                                              |
|--------------------------------------------------------------------|
|--------------------------------------------------------------------|
|--161616161616--111111-12-------------------------------------------|
|--x-x-x-x-x-x---x-x-x--x--------------------------------------------|
|--141414141414--9-9-9--10-------------------------------------------|
|--------------------------------------------------------------------|

Riff D *all notes trem picked*
|-----|-----------|------|-----------|------|-----------|-----|------|
|-----|-----------|------|-----------|------|-----------|-----|-13-12|
|-12--|--12--9-8--|--11--|--11--9-8--|--12--|--12--9-8--|--8--|-x--x-|
|-x---|--x---x-x--|--x---|--x---x-x--|--x---|--x---x-x--|--x--|-10-9-|
|-10--|--10--7-6--|--9---|--9---7-6--|--10--|--10--7-6--|--6--|------|
|-----|-----------|------|-----------|------|-----------|-----|------|

Riff E
|----------------------|---------------------------------------------|
|----------------------|---------------------------------------------|
|-----------------9\8--|---------------9\8--8/9----------------------|
|-----------------x-x--|---------------x-x--x-x----------------------|
|-----------------7\6--|---------------7\6--6/7----------------------|
|--0-0-0-0-0-0-0-------|--0-0-0-0-0-0--------------------------------|
|  . . . . . . .          . . . . . .                                |
|--------------------------|------|----------------------------------|
|--------------------------|------|----------------------------------|
|----------------9\8--8/9--|--10--|----------------------------------|
|----------------x-x--x-x--|--x---|--10------------------------------|
|----------------7\6--6/7--|--8---|--x-------------------------------|
|--0-0-0--0-0-0------------|------|--8-------------------------------|
   . . .  . . .

Riff F
|---------------|---------------|---------------|--------------------|
|---------------|---------------|---------------|--------------------|
|---------------|---------------|---------------|---------10---------|
|---------------|---------------|---------------|---------9----------|
|--------3---2--|--------3---2--|--------3---2--|---------8----------|
|--0-0-0---0----|--0-0-0---0----|--0-0-0---0----|--3-0-2-------------|
|  . . . . . .     . . . . . .     . . . . . .     . . .             |
|---------------|---------------|---------------|--------------------|
|---------------|---------------|---------------|--------------------|
|---------------|---------------|---------------|-----------9--------|
|---------------|---------------|---------------|--10\9-----8--------|
|--------3---2--|--------3---2--|--------3---2--|--8 \7-----7--------|
|--0-0-0---0----|--0-0-0---0----|--0-0-0---0----|--------7-----------|
   . . . . . .     . . . . . .     . . . . . .           .

Riff G  *all notes trem picked*
|-----|---------|-----|---------|-----|---------|--------|-----------|
|-----|---------|-----|---------|-----|---------|--------|-----------|
|--9--|--10--7--|--9--|--10--7--|--9--|--10--7--|--9-----|--11-------|
|--x--|--x---x--|--x--|--x---x--|--x--|--x---x--|--x-----|--x--------|
|--7--|--8---5--|--7--|--8---5--|--7--|--8---5--|--7-----|--9--------|
|-----|---------|-----|---------|-----|---------|--------|-----------|
|                                                                    |
|---------------|----------------------------------------------------|
|---------------|----------------------------------------------------|
|--12----11-12--|--(12)----------------------------------------------|
|--x-----x--x---|---x------------------------------------------------|
|--10----9--10--|--(10)----------------------------------------------|
|---------------|----------------------------------------------------|

Riff H  *all notes trem picked*
|-----------------|----------|----------------|----------------------|
|--12---13-11-13--|--(13)----|----------------|----------------------|
|--x----x--x--x---|---x------|--12-11--12-11--|--12------------------|
|--9----10-9--10--|--(10)----|--x--x---x--x---|--x-------------------|
|-----------------|----------|--10-9---10-9---|--10------------------|
|-----------------|----------|----------------|----------------------|

Riff I
|-----------|--------------------|-----------------------------------|
|-----------|--------------------|-----------------------------------|
|--7777777--|--1212121212121212--|--7--9-----------------------------|
|--xxxxxxx--|--x-x-x-x-x-x-x-x---|--7--9-----------------------------|
|--5555555--|--1010101010101010--|--5--7-----------------------------|
|-----------|--------------------|--5--7-----------------------------|
                                       .
Добавлено: 01.04.2012
Вам также может быть интересно:
Другие материалы по этой песне:
  • Аккорды и текст

Страница создана 01.04.2012
http://primanota.ru/aborym/our-sentence-chords.htm
Привет, Гость.
Предлагаем пройти революционный курс по гитаре.
Подарок от PrimaNota.Ru, забирай!