PrimaNota.ru - самый крупный в мире бесплатный архив песенных текстов, аккордов, табулатур и нот


Aborym - Digital Coat Masque - таба, видео

Регистрация Запомнить меня
Войти через:  Facebook Google Twitter Vk Yandex Mail.ru

Aborym - Digital Coat Masque - таба, видео

Печатать
Просмотров: 87
Уроки эстрадного вокала в Санкт-Петербурге
-------------------------------------------------------------------------------
                          Digital Coat Masque - Aborym
-------------------------------------------------------------------------------
Tabbed by: guiguig

Tuning: Standart

Riff 1 
e|------------------------------------------|
B|-8-TP-----4-TP-----9--TP-----5-TP---------|
G|-9-TP-----5-TP-----10-TP-----6-TP---------|
D|-9-TP-----5-TP-----10-TP-----6-TP---------|
A|-7-TP-----3-TP-----8--TP-----4-TP---------|
E|------------------------------------------|

Riff 2
e|---------------------------------------------------------------------------|
B|---------------------------------------------------------------------------|
G|----------------------5--------5-------------------------------------------|
D|-----2------2-------5---5----5---5------4-------4--------------------------|
A|---2--2---2---2---3-------3-----------4---4---4---4-----7----9----7----10--|
E|-0------0--------------------------2--------2-----------5----7----5----8---|

Riff 3
e|-------------------------------------|
B|-------------------------------------|
G|-0-TP-----2-TP-----5-TP----4-TP------|
D|-2-TP-----4-TP-----7-TP----4-TP------|
A|-2-TP-----4-TP-----7-TP----6-TP------|
E|-0-TP-----2-TP-----5-TP----7-TP------|

Riff 4
e|-------------------------------------------------------------------------------------|
B|-------------------------------------------------------------------------------------|
G|---------0------------0-------------2--------------2-------------5---------------4---|
D|-----2------------2-------------4--------------4-------------7---------------4-------|
A|---2---2---2----2---2---2-----4---4---4------4---4---4-----7---7----7------6---6---6-|
E|-0-----------0-------------2--------------2-------------5--------------7-------------|

Instrumental part
e|----------14-16----------------14-16----------------------16-------------16-16tr17--|
B|-14-16-17-------14----14-16-17-------14-16-14-17-14-19-14---17-16-14----------------|
G|---------------------------------------------------------------------16-------------|
D|------------------------------------------------------------------------------------|
A|------------------------------------------------------------------------------------|
E|------------------------------------------------------------------------------------|

e|--16-14-----------------------14-14tr16----14--------------------------12--12tr14--|
B|--------17-16-14------------------------------17-16-14-----------------------------|
G|-----------------16-14-13-14---------------------------16-14-13----13--------------|
D|----------------------------------------------------------------16-----------------|
A|-----------------------------------------------------------------------------------|
E|-----------------------------------------------------------------------------------|

e|-12--------------------------11-11tr12---12------------------------------------------|
B|----16-14-12--------------------------------14-12-10---------------------------------|
G|-------------14-13-11----11--------------------------13-11-9----9----11----13--------|
D|----------------------14-------------------------------------13---11----11---11------|
A|-------------------------------------------------------------------------------------|
E|-------------------------------------------------------------------------------------|

e|------------------------------------------------------------------12----14----16-----|
B|------------------------------------------------12-----14----16------14----16--------|
G|------------------------9----11----13----14--------14-----16----17-------------------|
D|-13-11-10----11----13-----11----13----14----16---------------------------------------|
A|----------11----11---11--------------------------------------------------------------|
E|-------------------------------------------------------------------------------------|

e|----------14tr16-16----------14tr16-16-----------14tr16-------14----16-------------|
B|-17-14--------------17-14--------------17-14------------17-14----14----14-17-14----|
G|-------16-----------------16----------------16-------------------------------------|
D|-----------------------------------------------------------------------------------|
A|-----------------------------------------------------------------------------------|
E|-----------------------------------------------------------------------------------|

e|-----------------------------------------------------------------------------------|
B|-13----14----16--------------------------------------------------------------------|
G|----13----13----13-------------11----13-----------------------------9----11----13--|
D|-------------------14-13-14-11----11----11-14-11-10----11----13-------11----13-----|
A|----------------------------------------------------11----11----11-----------------|
E|-----------------------------------------------------------------------------------|

e|--------------------------------------------------------|
B|--------------------------------------------------------|
G|----9----8----6---5---3---1-----------------------------|
D|-11---11---10---8---6---5---2---1-----------------------|
A|------------------------------4---3-4-1-3---------------|
E|------------------------------------------3-4-~---------|

Riff 5
e|-------------------------------------------------------------------------------|
B|-------------------------------------------------------------------------------|
G|----------------------------------5-5-5-------5-5-5----------------------------|
D|-------2-2-2--------2-2-2---------5-5-5-------5-5-5--------3-3-3--------3-3-3--|
A|-------2-2-2--------2-2-2---3-333-3-3-3-3-333-3-3-3--------3-3-3--------3-3-3--|
E|-0-000-0-0-0--0-000-0-0-0----------------------------1-111-1-1-1--1-111-1-1-1--|
e|-----------------------------|
B|-----------------------------|
G|---------6-6-6-------6-6-6---|
D|---------6-6-6-------6-6-6---|
A|---4-444-4-4-4-4-444-4-4-4---|
E|-----------------------------|

Riff 6
e|----------------------------------------|
B|----------------------------------------|
G|-9-TP-----5-TP------------------6-------|
D|-9-TP-----5-TP------3---------6---6-----|
A|-7-TP-----3-TP-----3--3-----4-----------|
E|-----------------1----------------------|

Riff 7
e|-----------------------------------|
B|-----------------------------------|
G|---0------0-------1------1---------|
D|---2----2---2-----3----3---3-------|
A|---2--------------3----------------|
E|---0--------------1----------------|

Riff 8
e|------0---------0---------1--------1------|
B|------0---------0---------1--------1------|
G|-0----0---------0----1----1--------1------|
D|-2-------------------3--------------------|
A|-2--------2--2-------3-------3--3---------|
E|-0--------0--0-------1-------1--1---------|

Riff 9
e|------------------------------------------|
B|------------------------------------------|
G|------------------------------------------|
D|-------------------------------4-----4----|
A|--5---4---5---4-5----------5--------------|
E|----7---6---7----------7-7---7---7-7------|


************************************
| tr  trill
| /   slide up
| \   slide down
| h   hammer-on
| p   pull-off
| ~   vibrato
| +   harmonic
| x   Mute note
| b   Bend
| pb  Pre-bend
| br  Bend release
| pbr Pre-bend release
| brb Bend release bend
| TP  Tremolo Picking
************************************
Добавлено: 30.12.2015
Вам также может быть интересно:
Другие материалы по этой песне:
  • Аккорды и текст

Страница создана 30.12.2015
http://primanota.ru/aborym/digital-coat-masque-chords.htm
Привет, Гость.
Предлагаем пройти революционный курс по гитаре.
Подарок от PrimaNota.Ru, забирай!