PrimaNota.ru - самый крупный в мире бесплатный архив песенных текстов, аккордов, табулатур и нот


Aborted - The Lament Configuration - текст песни, таба, видео

Регистрация Запомнить меня
Войти через:  Facebook Google Twitter Vk Yandex Mail.ru

Aborted - The Lament Configuration - текст песни, таба, видео

Печатать
Просмотров: 96
Tuning D G C F A D
Listen to CD for correct timing/muting technique. Riff A
sounds a little off but its close enough.

Riff A:
|----------------------------------------------------|
|----------------------------------------------------|
|----------------------------------------------------|
|---/9-8------------------------/9-8-5---------------|
|-7-/7-6-10--7-6-----7-6------7-/7-6-3-7-6------8ph~-|
|-0------8-------6-5-----6-5--0------------6-5-------|
             . . . . . . . .           . . . .
|----------------------------------------------------|
|----------------------------------------------------|
|----------------------------------------------------|
|---/9-8------------------------/9-8-5---------------|
|-7-/7-6-10--7-6-----7-6------7-/7-6-3-7-6-----------|
|-0------8-------6-5-----6-5--0------------6-5--8ph~-|
             . . . . . . . .           . . . .

Riff B:
|-------------------------------------------------|
|-------------------------------------------------|
|---------------------------------2-1-------------|
|-----------------7-6-----------------3-1---------|
|-222-555-888-777-----8-6-----------------2-1-0---|
|-000-333-666-555---------7-6-5-3---------------3-|
  ... ... ... ... . . . . . . . . . . . . . . . .

Riff C:
|----------------------------------|----------------------------------|
|----------------------------------|----------------------------------|
|----------------------------------|----------------------------------|
|----------------------------------|------------------------------3-2-|
|---------1"..0"..-----------------|---------1"..0"..---------5-3-1-0-|
|-3"..0"..--------3"..4"..2"..3"..-|-3"..0"..--------3"..4"..-3-1-----|

Riff D:
|----------------------------|
|----------------------------|
|----------------------------|
|---------9\8---8\7----------|
|-8\7-----7\6---6\5-----57-8-|
|-6\5-000----000----000-35-6-|
      ...    ...    ...
|----------------------------|
|----------------------------|
|----------------------------|
|---------9\8---8\7----------|
|-8\7-----7\6---6\5-----87-5-|
|-6\5-000----000----000-65-3-|
      ...    ...    ...
Riff E:
|----------------------------------------------------------------|
|----------------------------------------------------------------|
|----------------------------------------------------------------|
|----------------------------------------------------------------|
|-----0000--------------11110000-----------------2-2-222-2-2-222-|
|-3333----00003333330000--------3333555500003333-0-0-000-0-0-000-|
                                                 . . ... . . ...
(On the third run this is harmonised, sounds like an octave higher)

Riff F:
|----------------------------------|
|----------------------------------|
|----------------------------------|
|----------------------------------|
|-222-333-666-555-222-444-2-2-3ph~-|
|-000-111-444-333-000-222-0-0------|
  ... ... ... ... ... ... . .
|----------------------------------|
|----------------------------------|
|----------------------------------|
|----------------------------------|
|-222-333-666-555-222-444-2-2-4\3--|
|-000-111-444-333-000-222-0-0-2\1--|
  ... ... ... ... ... ... . .

Riff G:
|-----------------------------------------------------------|
|-----------------------------------------------------------|
|-----------------------------------------------------------|
|-----------------------------------------7"..----6"..------|
|-2-222-3ph~-----2--3--6--5--2-222-3ph~-------8"..----7"..--|
|-0-000------000-0--1--4--3--0-000------0-------------------|
  . ...      ... . . . . . ...          .

Ending
|---|
|---|
|---|
|---|
|-2-|
|-0-|

Song Structure:
Riff Ax2
Riff Bx4
Pause
Riff Cx2
Riff Dx4
Riff Ex4
Riff Fx4
Riff Gx4
Riff Cx3
Riff Dx4
Riff Ex4
Riff Fx4
Riff Gx4
Ending

END
Tab Legend

. - palm mute
\ - slide down to
/ - slide up to
h - hammer on
t - tap
ph - pinched harmonic
^ - Hold bend
r release bend
~ - vibrato bend
() - ghost note, sustained note
" - tremolo note
b - Bend
f - full bend
h - half bend
q - quarter bend
^ - Hold bend
r - release bend
Добавлено: 05.10.2013
Вам также может быть интересно:
Другие материалы по этой песне:

Страница создана 26.09.2013
http://primanota.ru/aborted/the-lament-configuration-chords.htm
Привет, Гость.
Предлагаем пройти революционный курс по гитаре.
Подарок от PrimaNota.Ru, забирай!