PrimaNota.ru - самый крупный в мире бесплатный архив песенных текстов, аккордов, табулатур и нот


Abolition - Worn Thin - бас-таба, видео

Регистрация Запомнить меня
Войти через:  Facebook Google Twitter Vk Yandex Mail.ru

Abolition - Worn Thin - бас-таба, видео

Печатать
Просмотров: 61
G|-------------------------------------|
D|-----3-2-0-----3-2-0-----3-2-0-------|
A|-------------------------------------| x4
E|-0-0-------0-0-------0-0-------1-1-1-|

G|-------------------------------------|
D|-------------------------------------|
A|-------------------------------------|
E|-4----3----4----3----4----3----4-3-1-|

G|-------------------------------------|
D|-----3-2-0-----3-2-0-----3-2-0-------|
A|-------------------------------------| x4
E|-0-0-------0-0-------0-0-------1-1-1-|

G|-------|
D|-------|
A|-------|
E|-4-3-1-|

G|-------------------------------------|
D|-----3-2-0-----3-2-0-----3-2-0-------|
A|-------------------------------------| 
E|-0-0-------0-0-------0-0-------1-1-1-|

G|---------------------------------------------------------------------|
D|---------------------------------------------------------------------|
A|-7-7-7-7-8-8-8-8-7-7-7-7-5-5-5-5-7-7-7-7-8-8-8-8-10-10-10-10-5-5-5-5-| x6
E|---------------------------------------------------------------------|

G|----------------------------------------------------------------|
D|----------------------------------------------------------------|
A|----------------------------------------------------------------| x4
E|-0-0--0-0-0--0-0-0-0--0-0-0--0-0-0--0-0-0--0-0-0--0--0--4-4-4-4-|

G|-------------------------------------|
D|-----3-2-0-----3-2-0-----3-2-0-------|
A|-------------------------------------| x4
E|-0-0-------0-0-------0-0-------1-1-1-|

Добавлено: 21.10.2015
Другие материалы по этой песне:
  • Аккорды и текст

Страница создана 21.10.2015
http://primanota.ru/abolition/worn-thin-chords.htm
Привет, Гость.
Предлагаем пройти революционный курс по гитаре.
Подарок от PrimaNota.Ru, забирай!