PrimaNota.ru - самый крупный в мире бесплатный архив песенных текстов, аккордов, табулатур и нот


Abolition - Where Is The Justice - бас-таба, видео

Регистрация Запомнить меня
Войти через:  Facebook Google Twitter Vk Yandex Mail.ru

Abolition - Where Is The Justice - бас-таба, видео

Печатать
Просмотров: 73
Уроки эстрадного вокала в Санкт-Петербурге
G|---------------------------|
D|---------------------------|
A|-7-------------------------| x8
E|---0-1-3-1-0-0-0-0-0-0-0-0-|

G|-------------------------------------------------|
D|-------------------------------------------------|
A|-3-3-3-3-3-3-6-6-6-6-6-6-------------8-8-8-7-7-7-| x4
E|-------------------------0-0-0-0-0-0-------------|

G|-----------------|
D|-----------------|
A|-----------------|
E|-0--0 (ring out)-|

Guitar on It's own for a bit.

G|-----------------------------|
D|-----------------------------|
A|-----------------------------| x4
E|-0-------1--------3--1--3--1-|

Guitar on It's own

G|-------------------------------------------------------|
D|-------------------------------------------------------|
A|---------------------------------7-7-7-7-8-8-8-3-3-8-8-| x4
E|-0-0-0-0-0-0-0-0-0-0-0-0-0-0-0-0-----------------------|

Добавлено: 21.10.2015
Вам также может быть интересно:
Другие материалы по этой песне:
  • Аккорды и текст

Страница создана 21.10.2015
http://primanota.ru/abolition/where-is-justice-chords.htm
Привет, Гость.
Предлагаем пройти революционный курс по гитаре.
Подарок от PrimaNota.Ru, забирай!