PrimaNota.ru - самый крупный в мире бесплатный архив песенных текстов, аккордов, табулатур и нот


Abolition - A Refusal - бас-таба, видео

Регистрация Запомнить меня
Войти через:  Facebook Google Twitter Vk Yandex Mail.ru

Abolition - A Refusal - бас-таба, видео

Печатать
Просмотров: 108
G|-------------------------------------------------------------------------|
D|-------------------------------------------------------------------------|
A|-10-9-7-9-10-9----7-9-10-9-----10-9-7-9-10-9----7-9-10-9-----10-9-7-9-10-|
E|----------------------------2-----------------------------2--------------|

G|---------------------------------------------|
D|---------------------------------------------|
A|---------------------------------10-9-7-9-10-| x3
E|-2-2-2-2-2-2-2-2-2-2-2-2-2-2-2-2-------------|

G|---------------------------------------|
D|---------------------------------------|
A|---------------------------------10----|
E|-2-2-2-2-2-2-2-2-2-2-2-2-2-2-2-2-------|

G|---------------------------------------------|
D|---------------------------------------------|
A|---------------------------------10-9-7-9-10-| x4
E|-2-2-2-2-2-2-2-2-2-2-2-2-2-2-2-2-------------|

G|---------------------------|
D|---------------------------|
A|---------------------------| x4
E|-2---2-2-3----2-2--2-2-2-2-|

G|---------------------------------------------|
D|---------------------------------------------|
A|---------------------------------10-9-7-9-10-| x4
E|-2-2-2-2-2-2-2-2-2-2-2-2-2-2-2-2-------------|

G|------------|
D|------------|
A|------------|
E|-2----------|

Добавлено: 20.08.2015
Другие материалы по этой песне:
  • Аккорды и текст

Страница создана 20.08.2015
http://primanota.ru/abolition/refusal-chords.htm
Привет, Гость.
Предлагаем пройти революционный курс по гитаре.
Подарок от PrimaNota.Ru, забирай!