PrimaNota.ru - самый крупный в мире бесплатный архив песенных текстов, аккордов, табулатур и нот


Abolition - On And On - бас-таба, видео

Регистрация Запомнить меня
Войти через:  Facebook Google Twitter Vk Yandex Mail.ru

Abolition - On And On - бас-таба, видео

Печатать
Просмотров: 103
Guitar on It's own for a bit, then

G|--------------|
D|--------------|
A|--------------| x8
E|-0-0--0-0--0--|

Guitar on It's own again 

G|---------------------------------|
D|---------------------------------|
A|-7-7-7-7-7-7-7-7-5-5-5-5-8-8-8-8-| x12
E|---------------------------------|

G|-----------------------------------------------------------------------|
D|-----------------------------------------------------------------------|
A|-7-7-7-7-7-7-7-7-8-8-8-8-5-5-5-5-7-7-7-7-7-7-7-7-7-8-8-8-8-10-10-10-10-| x4
E|-----------------------------------------------------------------------|

G|---------------------------------|
D|---------------------------------|
A|-7-7-7-7-7-7-7-7-5-5-5-5-8-8-8-8-| x4
E|---------------------------------|

G|--------------|
D|--------------|
A|--------------|
E|-0-(ring out)-|

Guitar on It's own for a bit, then

G|-------------------------|
D|-------------------------|
A|-------------------------| play for a while
E|-0--0--0--0--0--0--0--0--|

G|---------------------------|
D|---------------------------|
A|---------------------------| x8
E|-0-0-0-0-0--0--0--0--0-0-1-|

G|--------------|
D|--------------|
A|--------------|
E|-0-(ring out)-|

Добавлено: 21.10.2015
Другие материалы по этой песне:
  • Аккорды и текст

Страница создана 21.10.2015
http://primanota.ru/abolition/on-and-on-chords.htm
Привет, Гость.
Предлагаем пройти революционный курс по гитаре.
Подарок от PrimaNota.Ru, забирай!