PrimaNota.ru - самый крупный в мире бесплатный архив песенных текстов, аккордов, табулатур и нот


Abolition - No Remorse - таба, бас-таба, видео

Регистрация Запомнить меня
Войти через:  Facebook Google Twitter Vk Yandex Mail.ru

Abolition - No Remorse - таба, бас-таба, видео

Печатать
Просмотров: 141
http://www.facebook.com/xabolitionx

    e|------0------------------------------|
    B|---------1---------------------------|
GTR G|------------4------------------------|
 1  D|---------------2---------------------| x4
    A|-2------------------2--2--2--3--3--3-|
    E|-0------------------0--0--0--1--1--1-|
                          P  M  P  M  P  M

    e|-------------------------------------|
    B|-------------------------------------|
GTR G|-------------------------------------|
 2  D|-------------------------------------| x4
    A|-2------------------2--2--2--3--3--3-|
    E|-0-0000000000000000-0--0--0--1--1--1-|
         PMPMPMPMPMPMPMPM P  M  P  M  P  M


    e|-------------------------------------------------------------------|
    B|-------------------------------------------------------------------|
GTR G|------------------9--7--10--7--9-----------------------------------|
 1  D|-2----------------9--7--10--7--9-2----------------3--2--3--6--5--3-|
    A|-2-2222222222222--7--5--8---5--7-2-22222222222222-3--2--3--6--5--3-|
    E|-0-00000000000000----------------0-00000000000000-1--0--1--4--3--1-|
         PMPMPMPMPMPMPM                  PMPMPMPMPMPMPM
     
    e|-------------------------------------------------------------------|
    B|-------------------------------------------------------------------|
GTR G|-------------------------------------------------------------------|
 2  D|-2-------------------------------2----------------3--------6-------|
    A|-2-------------------------------2----------------3--------6-------|
    E|-0-------------------------------0----------------1--------4-------|

    e|-------------------------------------------------------------------|
    B|-------------------------------------------------------------------|
GTR G|------------------9--7--10--7--9-----------------------------------|
 1  D|-2----------------9--7--10--7--9-2----------------3--2--3--6--5--3-|
    A|-2-22222222222222-7--5--8---5--7-2-22222222222222-3--2--3--6--5--3-|
    E|-0-00000000000000----------------0-00000000000000-1--0--1--4--3--1-|
         PMPMPMPMPMPMPM                  PMPMPMPMPMPMPM
     
    e|-------------------------------------------------------------------|
    B|-------------------------------------------------------------------|
GTR G|-------------------------------------------------------------------|
 2  D|-2-------------------------------2----------------3----------------|
    A|-2-------------------------------2----------------3-(LET RING)-----|
    E|-0-------------------------------0----------------1----------------|

    e|-------------------------------------------------------------------|
    B|-------------------------------------------------------------------|
GTR G|------------------9--7--10--7--9-----------------------------------|
1+2 D|-2----------------9--7--10--7--9-2----------------3--2--3--6--5--3-| x4
    A|-2-22222222222222-7--5--8---5--7-2-22222222222222-3--2--3--6--5--3-|
    E|-0-00000000000000----------------0-00000000000000-1--0--1--4--3--1-|
         PMPMPMPMPMPMPM                  PMPMPMPMPMPMPM

    e|--------------------------------------------------------|
    B|--------------------------------------------------------|
GTR G|-9-----10-----12-----------9-----10-----12-----13-13-13-|
1+2 D|-9-2-2-10-2-2-12-2-2-3-3-3-9-2-2-10-----12-----13-13-13-| x2
    A|-7-2-2-8--2-2-10-2-2-3-3-3-7-2-2-8--2-2-10-2-2-11-11-11-|
    E|---0-0----0-0----0-0-1-1-1---0-0----0-0----0-0----------|

    e|--------------------------------------------------------|
    B|--------------------------------------------------------|
GTR G|-9-----10-----12-----------9-----10-----12-----13-13-13-|
1+2 D|-9-2-2-10-2-2-12-2-2-3-3-3-9-2-2-10-----12-----13-13-13-| 
    A|-7-2-2-8--2-2-10-2-2-3-3-3-7-2-2-8--2-2-10-2-2-11-11-11-|
    E|---0-0----0-0----0-0-1-1-1---0-0----0-0----0-0----------|
         P M    P M    P M         P M    P M    P M

    e|--------------------------------------------------------|
    B|--------------------------------------------------------|
GTR G|-9-----10-----12-----------9-----10-----12-----15-15-15-|
 1  D|-9-2-2-10-2-2-12-2-2-3-3-3-9-2-2-10-----12-----13-13-13-| 
    A|-7-2-2-8--2-2-10-2-2-3-3-3-7-2-2-8--2-2-10-----11-11-11-|
    E|---0-0----0-0----0-0-1-1-1---0-0----0-0----0-0----------|
         P M    P M    P M         P M    P M    P M

    e|--------------------------------------------------------|
    B|--------------------------------------------------------|
GTR G|-9-----10-----12-----------9-----10-----12-----13-13-13-|
 2  D|-9-2-2-10-2-2-12-2-2-3-3-3-9-2-2-10-----12-----13-13-13-| 
    A|-7-2-2-8--2-2-10-2-2-3-3-3-7-2-2-8--2-2-10-2-2-11-11-11-|
    E|---0-0----0-0----0-0-1-1-1---0-0----0-0----0-0----------|
         P M    P M    P M         P M    P M    P M

    e|-------------------------------------------------------------------|
    B|-------------------------------------------------------------------|
GTR G|------------------9--7--10--7--9-----------------------------------|
1+2 D|-2----------------9--7--10--7--9-2----------------3--2--3--6--5--3-| x4
    A|-2-22222222222222-7--5--8---5--7-2-22222222222222-3--2--3--6--5--3-|
    E|-0-00000000000000----------------0-00000000000000-1--0--1--4--3--1-|
         PMPMPMPMPMPMPM                  PMPMPMPMPMPMPM

    e|--------------------------------------------------------|
    B|--------------------------------------------------------|
GTR G|-9-----10-----12-----------9-----10-----12-----13-13-13-|
1+2 D|-9-2-2-10-2-2-12-2-2-3-3-3-9-2-2-10-----12-----13-13-13-| x2
    A|-7-2-2-8--2-2-10-2-2-3-3-3-7-2-2-8--2-2-10-2-2-11-11-11-|
    E|---0-0----0-0----0-0-1-1-1---0-0----0-0----0-0----------|

    e|--------------------------------------------------------|
    B|--------------------------------------------------------|
GTR G|-9-----10-----12-----------9-----10-----12-----13-13-13-|
1+2 D|-9-2-2-10-2-2-12-2-2-3-3-3-9-2-2-10-----12-----13-13-13-| 
    A|-7-2-2-8--2-2-10-2-2-3-3-3-7-2-2-8--2-2-10-2-2-11-11-11-|
    E|---0-0----0-0----0-0-1-1-1---0-0----0-0----0-0----------|
         P M    P M    P M         P M    P M    P M

    e|--------------------------------------------------------|
    B|--------------------------------------------------------|
GTR G|-9-----10-----12-----------9-----10-----12-----15-15-15-|
 1  D|-9-2-2-10-2-2-12-2-2-3-3-3-9-2-2-10-----12-----13-13-13-| 
    A|-7-2-2-8--2-2-10-2-2-3-3-3-7-2-2-8--2-2-10-----11-11-11-|
    E|---0-0----0-0----0-0-1-1-1---0-0----0-0----0-0----------|
         P M    P M    P M         P M    P M    P M

    e|--------------------------------------------------------|
    B|--------------------------------------------------------|
GTR G|-9-----10-----12-----------9-----10-----12-----13-13-13-|
 2  D|-9-2-2-10-2-2-12-2-2-3-3-3-9-2-2-10-----12-----13-13-13-| 
    A|-7-2-2-8--2-2-10-2-2-3-3-3-7-2-2-8--2-2-10-2-2-11-11-11-|
    E|---0-0----0-0----0-0-1-1-1---0-0----0-0----0-0----------|
         P M    P M    P M         P M    P M    P M

    e|-----------------------------------------------------------|
    B|-----------------------------------------------------------|
GTR G|-----------------------------------------------------------|
 1  D|-2---------------------------------------------------------|
    A|-2---------------------------------------------------------|
    E|-0-0-0-0-0-0-0-0-0-0-0-0-0-0-0-0-0-0-0-0-0-0-0-0-0-0-0-0-0-|
         P M P M P M P M P M P M P M P M P M P M P M P M P M P M

    e|-----------------------------------------------------------|
    B|-----------------------------------------------------------|
GTR G|-----------------------------------------------------------|
 2  D|-2---------------------------------------------------------|
    A|-2-(LET RING)----------------------------------------------|
    E|-0---------------------------------------------------------|

    e|---------------------------------|
    B|---------------------------------|
GTR G|-7-------------------------------|
 1  D|-8-----------------------------3-|
    A|-7-----------------------------3-|
    E|---0-0-0-0-0-0-0-0-0-0-0-0-0-0-1-|
         P M P M P M P M P M P M P M

    e|-----------------------------------------------------------|
    B|-----------------------------------------------------------|
GTR G|-----------------------------------------------------------|
 1  D|-2---------------------------------------------------------|
    A|-2---------------------------------------------------------|
    E|-0-0-0-0-0-0-0-0-0-0-0-0-0-0-0-0-0-0-0-0-0-0-0-0-0-0-0-0-0-|
         P M P M P M P M P M P M P M P M P M P M P M P M P M P M

    e|---------------------------------------------------------------|
    B|---------------------------------------------------------------|
GTR G|---------------9-----7-----10-7-9-------------12--9-9-13-10-10-|
 2  D|-2-------------9-----7-----10-7-9-------------12--9-9-13-10-10-|
    A|-2-2-2-2-2-2-2-7-2-2-5-2-2-8--5-7-2-2-2-2-2-2-10--7-7-11-8--8--|
    E|-0-0-0-0-0-0-0---0-0---0-0--------0-0-0-0-0-0------------------|
         P M P M P M   P M   P M        P M P M P M

    e|-------------------------------------------------------------|
    B|-------------------------------------------------------------|
GTR G|-7-----------------------------------------------------------|
 1  D|-8-----------------------------3-----------------------------|
    A|-7-----------------------------3-2-2-2-2-2-2-2-2-2-2-2-2-2-2-|
    E|---0-0-0-0-0-0-0-0-0-0-0-0-0-0-1-0-0-0-0-0-0-0-0-0-0-0-0-0-0-|
         P M P M P M P M P M P M P M   P M P M P M P M P M P M P M

    e|--------------------------------------------------------------|
    B|--------------------------------------------------------------|
GTR G|---------------9-----7-----10-7-9-----------------------------|
 2  D|-2-------------9-----7-----10-7-9-----------------------------|
    A|-2-2-2-2-2-2-2-7-2-2-5-2-2-8--5-7-2-2-2-2-2-2-2-2-2-2-2-2-2-2-|
    E|-0-0-0-0-0-0-0---0-0---0-0--------0-0-0-0-0-0-0-0-0-0-0-0-0-0-|
         P M P M P M   P M   P M        P M P M P M P M P M P M P M

    e|---------------------------------------------------------------|
    B|---------------------------------------------------------------|
GTR G|-9-------------9-----7-----10-7-9-------------12--9-9-13-10-10-|
1+2 D|-9-------------9-----7-----10-7-9-------------12--9-9-13-10-10-| x2
    A|-7-2-2-2-2-2-2-7-2-2-5-2-2-8--5-7-2-2-2-2-2-2-10--7-7-11-8--8--|
    E|---0-0-0-0-0-0---0-0---0-0--------0-0-0-0-0-0------------------|
         P M P M P M   P M   P M        P M P M P M

    e|------------------------------------------------------------|
    B|------------------------------------------------------------|
GTR G|-9-----------------------------------------12--9-9-13-10-10-|
 1  D|-9-----------------------------------------12--9-9-13-10-10-| x2
    A|-7-2---2---2---2---2---2---2---2---2---2---10--7-7-11-8--8--|
    E|---0---0---0---0---0---0---0---0---0---0--------------------|
         PM  PM  PM  PM  PM  PM  PM  PM  PM  PM

    e|---------------------------------------------------------------|
    B|---------------------------------------------------------------|
GTR G|-9-------------9-----7-----10-7-9-------------12--9-9-13-10-10-|
 2  D|-9-------------9-----7-----10-7-9-------------12--9-9-13-10-10-| x2
    A|-7-2---2---2---7-2-2-5-2-2-8--5-7-2---2---2---10--7-7-11-8--8--|
    E|---0---0---0-----0-0---0-0--------0---0---0--------------------|
         PM  PM  PM    P M   P M        PM  PM  PM

    e|--------------------------------------------------------|
    B|--------------------------------------------------------|
GTR G|-9-----10-----12-----------9-----10-----12-----13-13-13-|
1+2 D|-9-2-2-10-2-2-12-2-2-3-3-3-9-2-2-10-----12-----13-13-13-| x2
    A|-7-2-2-8--2-2-10-2-2-3-3-3-7-2-2-8--2-2-10-2-2-11-11-11-|
    E|---0-0----0-0----0-0-1-1-1---0-0----0-0----0-0----------|

    e|--------------------------------------------------------|
    B|--------------------------------------------------------|
GTR G|-9-----10-----12-----------9-----10-----12-----13-13-13-|
1+2 D|-9-2-2-10-2-2-12-2-2-3-3-3-9-2-2-10-----12-----13-13-13-| 
    A|-7-2-2-8--2-2-10-2-2-3-3-3-7-2-2-8--2-2-10-2-2-11-11-11-|
    E|---0-0----0-0----0-0-1-1-1---0-0----0-0----0-0----------|
         P M    P M    P M         P M    P M    P M

    e|--------------------------------------------------------|
    B|--------------------------------------------------------|
GTR G|-9-----10-----12-----------9-----10-----12-----15-15-15-|
 1  D|-9-2-2-10-2-2-12-2-2-3-3-3-9-2-2-10-----12-----13-13-13-| 
    A|-7-2-2-8--2-2-10-2-2-3-3-3-7-2-2-8--2-2-10-----11-11-11-|
    E|---0-0----0-0----0-0-1-1-1---0-0----0-0----0-0----------|
         P M    P M    P M         P M    P M    P M

    e|--------------------------------------------------------|
    B|--------------------------------------------------------|
GTR G|-9-----10-----12-----------9-----10-----12-----13-13-13-|
 2  D|-9-2-2-10-2-2-12-2-2-3-3-3-9-2-2-10-----12-----13-13-13-| 
    A|-7-2-2-8--2-2-10-2-2-3-3-3-7-2-2-8--2-2-10-2-2-11-11-11-|
    E|---0-0----0-0----0-0-1-1-1---0-0----0-0----0-0----------|
         P M    P M    P M         P M    P M    P M

    e|---------------------------------------------|
    B|---------------------------------------------|
GTR G|---------------------------------------------|
1+2 D|-2-------------------------------------------|
    A|-2-(LET RING)--------------------------------|
    E|-0-------------------------------------------|
Добавлено: 19.08.2013
Другие материалы по этой песне:
  • Аккорды и текст

Страница создана 19.08.2013
http://primanota.ru/abolition/no-remorse-chords.htm
Привет, Гость.
Предлагаем пройти революционный курс по гитаре.
Подарок от PrimaNota.Ru, забирай!