PrimaNota.ru - самый крупный в мире бесплатный архив песенных текстов, аккордов, табулатур и нот


Abolition - Haversham - бас-таба, видео

Регистрация Запомнить меня
Войти через:  Facebook Google Twitter Vk Yandex Mail.ru

Abolition - Haversham - бас-таба, видео

Печатать
Просмотров: 116
G|-------------------------------------------------|
D|-------------------------------------------------|
A|-------------8-8-8-8-8-8-------------------------| x6
E|-0-0-0-0-0-0-------------8-8-8-8-8-8-3-6-6-1-4-4-|

G|-----------------------------------------------------|
D|-----------------------------------------------------|
A|-----------------------------------------------------|
E|-0------1-0-1-3-0--------0------1-0-1-3-0------1-1-1-|

G|-----------------------------------------------------------------|
D|-----------------------------------------------------------------|
A|---------------------------------------------------------8-8-8-8-| x4
E|-0-0-0-0-0-0-0-0-0-0-0-0-0-0-0-0-0-0-0-0-0-0-0-0-0-0-0-0---------|

G|-------------------------------------------------|
D|-------------------------------------------------|
A|-------------8-8-8-8-8-8-------------------------| x4
E|-0-0-0-0-0-0-------------8-8-8-8-8-8-3-6-6-1-4-4-|

G|--------------|
D|--------------|
A|--------------|
E|-0-(Ring out)-|

Guitar on It's own

G|--------------------------------------------------|
D|--------------------------------------------------|
A|--------------------8-7---------------------------| x4
E|-0-0--0-0--0-0--0-0-----8-0-0--0-0--0-0-3-1-4-3-1-|


Добавлено: 20.08.2015
Другие материалы по этой песне:
  • Аккорды и текст

Страница создана 20.08.2015
http://primanota.ru/abolition/haversham-chords.htm
Привет, Гость.
Предлагаем пройти революционный курс по гитаре.
Подарок от PrimaNota.Ru, забирай!