PrimaNota.ru - самый крупный в мире бесплатный архив песенных текстов, аккордов, табулатур и нот


Ablaze My Sorrow - Truth Is Solid - таба, видео

Регистрация Запомнить меня
Войти через:  Facebook Google Twitter Vk Yandex Mail.ru

Ablaze My Sorrow - Truth Is Solid - таба, видео

Печатать
Просмотров: 174
Уроки эстрадного вокала в Санкт-Петербурге
ABLAZE MY SORROW-The Truth Is Sold
The Plague-1998
Copyright No Fashion Records
Transcribed by Justin Brabon
e-mail: glcometdude@hotmail.com


All corrections are welcome.

 " - tremolo
 / - slide down
 \ - slide up
 . - palm mute
 ~ - long sound
 x - rest
 p - pull off
 h - hammer on
 tr - trill
 () - ghost note, sustained note
 * - artificial harmonics
 b - bend

 Tuning from low to high: D G C F A D

================================
Sorry, no solo((
================================

 Intro                                                    x2
|---------|-------------------------------------------------|
|---------|-------------------------------------------------|
|---------|-------------------------------------------------|
|---------|-2-------------2-------------2-------------8-7-6-|gtr 1
|---------|-2-------------2-------------2-------------8-7-6-|
|---------|-0-------------0-------------0-------------6-5-4-|
|
|---------|-------------------------------------------------|
|---------|-------------------------------------------------|
|---------|-------------------------------------------------|
|-----2---|-2-----------8-2-------------2-----------8-8-7-6-|gtr 2
|-0h2-2p1-|-2---------7-.-2-------5-7h8-2---------7-.-8-7-6-|
|---------|-0-0-000-6-.---0-0-000-------0-0-000-6-.---6-5-4-|
              . ... .       . ...         . ... .

 Riff 1
|-------------------------------------------------------|
|-------------------------------------------------------|
|-------------------------------------------------------|
|-2-----------8-2-------------2-----------8-----7-----6-|both
|-2---------7-.-2-------5-7h8-2---------7-.---6-.---5-.-|
|-0-0-000-6-.---0-0-000-------0-0-000-6-.---5-.---4-.---|
    . ... .       . ...         . ... .     .     .
|-------------------------------------------------|
|-------------------------------------------------|
|-------------------------------------------------|
|-2-----------8-2-------------2-----------8-8-7-6-|both
|-2---------7-.-2-------5-7h8-2---------7-.-8-7-6-|
|-0-0-000-6-.---0-0-000-------0-0-000-6-.---6-5-4-|
    . ... .       . ...         . ... .


 Riff 2a
|---------------------------------------------------------------|
|---------------------------------------------------------------|
|---------------------------------------------------------------|
|-2-------------5p4-------------7h9-------------5h7-------------|both
|-2---------------------------------5-555-5-555-----------------|
|-0-0-000-0-000-----0-000-0-000-----.-...-.-...-----7-777-7-777-|
    . ... . ...     . ... . ...                     . ... . ...


 Riff 2b
|-----------------------------------------------------------------|
|-----------------------------------------------------------------|
|-----------------------------------------------------------------|
|-----------------5p4-------------7h9-------------5h7-------------|both
|-5h7---------------------------------5-555-5-555-----------------|
|-----0-000-0-000-----0-000-0-000-----.-...-.-...-----7-777-7-777-|
      . ... . ...     . ... . ...                     . ... . ...


 Riff 2c
|-----------------------------------------------------------------|
|-----------------------------------------------------------------|
|-----------------------------------------------------------------|
|-----------------5p4-------------7h9-------------5h7-------------|both
|-5h7---------------------------------5-555-5-555-----------------|
|-----0-000-0-000-----0-000-0-000-----.-...-.-...-----7-777-7-777-|
|     . ... . ...     . ... . ...                     . ... . ...
|-----------------------------------------------------------------|
|-----------------------------------------------------------------|
|-----------------------------------------------------------------|
|-----------------5p4~~~----------7h9-------------5h7-------------|gtr 3
|-5h7~~~------------------------------5~~~------------------------|
|-----------------------------------------------------7~~~--------|



 Riff 1b
|-------------------------------------------------------------------|
|-------------------------------------------------------------------|
|-------------------------------------------------------------------|
|-2-----------8-2-------------2-----------8-----7-----6-------------|both
|-2---------7-.-2-------5-7h8-2---------7-.---6-.---5-.-----3---3/5-|
|-0-0-000-6-.---0-0-000-------0-0-000-6-.---5-.---4-.---3-2-1---1/3-|
    . ... .       . ...         . ... .     .     .     . .


 Riff 3a
|----------------------------------------------------------|
|----------------------------------------------------------|
|----------------------------------------------------------|
|-2-9"-8"----------9"-8"----------5"-4"---------5-"4"------|gtr 1
|-2-------10"9"7"--------10"9"3"--------5"7"3"--------5"7"-|
|-0--------------------------------------------------------|
|
|----------------------------------------------------------|
|----------------------------------------------------------|
|-----------------------------5-------------5x-------------|
|-2x-----------2--------------5-------------5x-------------|gtr 2
|-2x-----------2--------------3-------------3x-------------|
|-0x-----------0-------------------------------------------|

|------------------------------------------------------------|
|------------------------------------------------------------|
|------------------------------------------------------------|
|------------------------------------------------------------|both
|-0"--7"-6"---------7"-6"---------9"-7"-7"9"----9"-12"-10"9"-|
|-----------8"7"5"--------8"7"7"------------7"---------------|



 Riff 3b
|-----------------------------------------------------------|
|-----------------------------------------------------------|
|-----------------------------------------------------------|
|----9"-8"----------9"-8"----------5"-4"---------5-"4"------|both
|----------10"9"7"--------10"9"3"--------5"7"3"--------5"7"-|
|-0"--------------------------------------------------------|

|------------------------------------------------------------|
|------------------------------------------------------------|
|------------------------------------------------------------|
|------------------------------------------------------------|both
|-0"--7"-6"---------7"-6"---------9"-7"-7"9"----9"-12"-10"9"-|
|-----------8"7"5"--------8"7"7"------------7"---------------|


 Fill 1
|-------------|
|-------------|
|-------------|
|----9-8------|both
|--------10-9-|
|-0-----------|


 Riff 4
|----------------------------|
|----------------------------|
|----------------------------|
|-2----2----5---------5------|both
|-0----0----3----2--x-3--2~--|
|-----------3----0--x--------|



 Riff 5
|--------------------------------------------------------------------|
|--------------------------------------------------------------------|
|--------------------------------------------------------------------|
|-2----------------2----------------5----------------------5-----4---|both
|-0-0-0-0-0-0-0000-0-0-0-0-0-0-0000-3-3-3-3-3-3-3333-2-----3-5-5-2-2-|
|---.-.-.-.-.-....---.-.-.-.-.-....-3-.-.-.-.-.-....-0-0-0-3-.-.---.-|
|                                                       . .
|--------------------------------------------------------------------|
|--------------------------------------------------------------------|
|-5-4-2~~----------5-4-2~~------------5~~--------------6~~-----------|
|-------------2222-------------2222-3---------------/7---------------|gtr 3
|--------------------------------------------------------------------|
|--------------------------------------------------------------------|

 Ending riff
|-------------------|
|-------------------|
|-------------------|
|-------5-----4---2-|both
|-2-----3-3-3-2-2-0-|
|-0-0-0-3-.-.---.---|
    . .

Добавлено: 18.05.2012
Другие материалы по этой песне:
  • Аккорды и текст

Страница создана 18.05.2012
http://primanota.ru/ablaze-my-sorrow/truth-is-solid-chords.htm
Привет, Гость.
Предлагаем пройти революционный курс по гитаре.
Подарок от PrimaNota.Ru, забирай!