PrimaNota.ru - самый крупный в мире бесплатный архив песенных текстов, аккордов, табулатур и нот


Ablaze My Sorrow - Into The Land Of Dreams - текст песни, таба, видео

Регистрация Запомнить меня
Войти через:  Facebook Google Twitter Vk Yandex Mail.ru

Ablaze My Sorrow - Into The Land Of Dreams - текст песни, таба, видео

Печатать
Просмотров: 168
Уроки эстрадного вокала в Санкт-Петербурге
Авторы музыки: Magnus Carlsson, Dennie Linden, Ablaze My Sorrow
Авторы текста: Anders Brorsson
ABLAZE MY SORROW-Into The Land Of Dreams
The Plague-1998
Copyright No Fashion Records
Transcribed by Justin Brabon
e-mail: glcometdude@hotmail.com


All corrections are welcome.

 " - tremolo
 / - slide down
 \ - slide up
 . - palm mute
 ~ - long sound
 x - rest
 p - pull off
 h - hammer on
 tr - trill
 () - ghost note, sustained note
 * - artificial harmonics
 b - bend

 Tuning from low to high: D G C F A D

=============================

 Riff 1
|---------------------------|
|---------------------------|
|---------------------------|
|--------------5------------|gtr 1
|-7-----7------3-3333-------|
|-5-555---5555---....-0-0-0-|
|   ...   ....        . . .
|---------------------------|
|---------------------------|
|---------------------------|
|--------------5------------|gtr 2
|-7-----7------3-3333-------|
|-5-555---5555---....-0-0-0-|
    ...   ....        . . .                         x2
|-----------------------------------------------------|
|-----------------------------------------------------|
|-----------------------------------------------------|
|-----------------------------------------------------|gtr 1
|-3-----2---3---2---------3-----2---3---2-----3-2-3-5-|
|-1-111-.-1-.-1-.-1-3-5-1-1-111-.-1-.-1-.-1-3---------|
|   ...   .   .   . . . .   ...   .   .   . .
|-----------------------------------------------------|
|-----------------------------------------------------|
|-----------------------------------------------------|
|-----------------------------------------------------|gtr 2
|-3-----2---3---2---------3-----2---3---2---5"--------|
|-1-111-.-1-.-1-.-1-3-5-1-1-111-.-1-.-1-.-1-3"--------|
    ...   .   .   . . . .   ...   .   .   .


 Riff 2
|----------------------------------------------|
|------------5-3-------------------------------|
|-2-2222-2~------5-4-2~------------------------|
|------------------------3-3333-3~---5-4-5-7~--|gtr 1
|----------------------------------------------|
|----------------------------------------------|
|
|----------------------------------------------|
|----------------------------------------------|
|----------------------------------------------|
|--------2-------------------------------------|gtr 2
|-0-0000-0----------------------3--------------|
|------------------------1-1111-1--------------|

|--------------------------------------------|
|--------------------------------------------|
|--------------------------------------------|
|-5-5555-5~--7-5-4-5/9~--7-5-4-5-4~----------|gtr 1
|------------------------------------6-7-9~--|
|--------------------------------------------|
|
|--------------------------------------------|
|-------------------------------1------------|
|-------------------------------2------------|
|--------5----------------------2---------5--|gtr 2
|--------5---------------0-0000-----------5--|
|-3-3333---------------------------3-3333----|



 Riff 3a
|-----------------------------------------------------------------|
|-----------------------------------------------------------------|
|-----------------------------------------------------------------|
|---------------------------------------5---5---5-------4---4---4-|both
|-------7---7---7-------7---7---7-----------------3-333---5---5---|
|-0-000---0---0---0-000---0---0---0-000---0---0---.-...---.---.---|
  . ...   .   .   . ...   .   .   . ...   .   .

 Riff 3b
|-----------------------------------------------------------------|
|-----------------------------------------------------------------|
|------------------------------------------------------5--------7-|
|---------------------------------------5---5---5------2--------4-|both
|-------7---7---7-------7---7---7-----------------3333-3---5555-5-|
|-0-000---0---0---0-000---0---0---0-000---0---0-------------------|
  . ...   .   .   . ...   .   .   . ...   .   .


 Fill 1
|--------------------------------|
|--------------------------5~~~--|
|----------------5-4-2-4h5-------|
|-5----4----2--------------------|gtr 1
|--------------------------------|
|---00---00---00-----------------|
|   ..   ..   ..
|--------------------------------|
|--------------------------------|
|--------------------------------|
|--------------------------------|gtr 2
|--------------------------------|
|--------------------------------|



 Riff 4                                                        (1)
|-----------------------------------------------------------------|
|-----------------------------------------------------------------|
|-----------------------------------------------------------------|
|-------------------------------------5-5-----5-5-----5-5-----5-5-|both
|-----7-7-----7-7-----7-7-----7-7-----6-6-----6-6-----6-6-----6-6-|
|-000-0-0-000-0-0-000-0-0-000-0-0-888-----888-----888-----888-----|
                                                             (2,4)
|-----------------------------------------------------------------|
|-----------------------------------------------------------------|
|-----------------------------------------------------8-8-----8-8-|
|-------------------------------------8-8-----8-8-----9-9-----9-9-|both
|-----7-7-----7-7-----7-7--9"-10"-----9-9-----9-9-666-----666-----|
|-000-0-0-000-0-0-000-0-0---------666-----666---------------------|
                                                                (3)
|------------------------------------------------------------------|
|------------------------------------------------------------------|
|------------------------------------------------------------------|
|--------------------------------------5-5-----5-5-----5-5-----5-5-|both
|-----7-7-----7-7-----9-9-----10-10----6-6-----6-6-----6-6-----6-6-|
|-000-0-0-000-0-0-000-0-0-000--0-0--888-----888-----888-----888----|




 Riff 5a
|-----------------------------------------|
|-----------------------------------------|
|-----------------------------------------|
|-10"--7"------------9"------9"-10"-9"-7"-|gtr 1
|----------9"--7"-6"----------------------|
|-----------------------------------------|
|
|-----------------------------------------|
|-----------------------------------------|
|-----------------------------------------|
|----------------------------5"-----------|gtr 2
|--0"--3"--5"--7"-6"-7"-------------------|
|-----------------------------------------|

|-----------------------------------------------|
|-----------------------------------------------|
|-----------------------------------------------|
|-10"--7"---------------------------------------|gtr 1
|----------9"--7"-6"-7"------7"9"10"7"9"10"7"9"-|
|-----------------------------------------------|
|
|-----------------------------------------------|
|-----------------------------------------------|
|-----------------------------------------------|
|----------------------------5"-----------------|gtr 2
|--0"--3"--5"--7"-6"-7"-------------------------|
|-----------------------------------------------|



 Riff 5b
|-----------------------------------------|
|-----------------------------------------|
|-----------------------------------------|
|-10"--7"------------9"------9"-10"-9"-7"-|gtr 1
|----------9"--7"-6"----------------------|
|-----------------------------------------|
|
|-----------------------------------------|
|-----------------------------------------|
|-----------------------------------------|
|--2222555577779--8--99999999-------5*----|gtr 2
|--0000333355557--6--77777777-2222--------|
|---...-...-...------........-0000--------|

|---------------------------------------|
|---------------------------------------|
|---------------------------------------|
|-10"--7"-------------------------------|gtr 1
|----------9"--7"-6"-7"-------5p2-----2-|
|-----------------------------3p0-0-0-0-|
|
|---------------------------------------|
|---------------------------------------|
|---------------------------------------|
|--2222555577779--8--99999999-----------|gtr 2
|--0000333355557--6--77777777-5p2-----2-|
|---...-...-...------........-3p0-0-0-0-|




 Riff 6
|-------------------------------------------------|
|-------------------------------------------------|
|-------------------5-----5-4-2-4-----4-2-0-2-----|
|-7-5-4-5-----5-4-2---------------555---------444-|gtr 1
|---------------------000---------...---------...-|
|---------000---------...-------------------------|
|         ...
|-------------------------------------------------|
|-------------------------------------------------|
|-------------------5-----5-4-2-0-----------------|
|-4-2-4-5-----5-4-2-------------------5-4-2-4-----|gtr 2
|---------------------000---------------------222-|
|---------000---------...---------000---------...-|
          ...                     ...


 Fill 2
|---------|     |---|
|---------|     |---|
|---------|     |---|
|-2-2-2-2-|     |-2-|Ending chord
|-2-2-2-2-|     |-2-|
|-0-0-0-0-|     |-0-|
Добавлено: 21.07.2012
Другие материалы по этой песне:
  • Аккорды и текст

Страница создана 08.04.2012
http://primanota.ru/ablaze-my-sorrow/into-the-land-of-dreams-chords.htm
Привет, Гость.
Предлагаем пройти революционный курс по гитаре.
Подарок от PrimaNota.Ru, забирай!