PrimaNota.ru - самый крупный в мире бесплатный архив песенных текстов, аккордов, табулатур и нот


Ablaze My Sorrow - Erasedrelived - таба, видео

Регистрация Запомнить меня
Войти через:  Facebook Google Twitter Vk Yandex Mail.ru

Ablaze My Sorrow - Erasedrelived - таба, видео

Печатать
Просмотров: 145
Авторы музыки: Magnus Carlsson, Ablaze My Sorrow
Авторы текста: Magnus Carlsson
ABLAZE MY SORROW-Erased-Relieved
Anger, Hate And Fury-2002
Copyright No Fashion Records
Transcribed by Justin Brabon
e-mail: glcometdude@hotmail.com


All corrections are welcome.

 " - tremolo
 / - slide down
 \ - slide up
 . - palm mute
 ~ - long sound
 x - rest
 p - pull off
 h - hammer on
 tr - trill
 () - ghost note, sustained note
 * - artificial harmonics
 b - bend

 Tuning from low to high: D G C F A D

=====================================

 Riff 1              (1)          (2)
|-----------|-----------|------------|
|-----------|-----------|------------|
|-----------|-----------|------------|
|-----------|-----------|------------|
|---9"---9"-|---9"-10"--|-10-9-10-12-|
|-0----0----|-0---------|--8-7--8-10-|


 Riff 2                                   (1)         (2)
|------------------------------|-------------|-----------|
|------------------------------|-------------|-----------|
|------------------------------|-------------|-----------|
|---9"-7"-9"-------------------|-------------|-----------|
|------------10"------7"-6"-7"-|----6"-7"-9"-|-9-9-10-10-|
|-0----------------8"----------|-7"----------|-7-7--8--8-|


 Riff 3
|---------------------------------------|
|---------------------------------------|
|------------------------------4------2-|
|---------5-5-555-2-2-222-5555-5-4444-4-|
|-2-2-222-3-3-333-3-3-333---------------|
|-0-0-000---#-----5-5-555---------------|
    #               #


 Riff 4a
|------------------------------------|
|------------------------------------|
|------------------------------------|
|----------------5-5---5-5-------2-2-|
|-2-2---2-2------3-3---3-3-------3-3-|
|-0-0---0-0----------------------5-5-|

|----------------------------|
|----------------------------|
|-------------4-4----2-2-----|
|---2-2-------5-5----4-4-----|
|---3-3----------------------|
|---5-5----------------------|


 Riff 4b
|------------------------------------|
|-5~---5-7-8-7-5-------5-7-8-7-5-----|
|----4-----------5~--5---------------|
|--------------------------------7~--|
|------------------------------------|
|------------------------------------|
|
|------------------------------------|
|------------------------------------|
|------------------------------------|
|----------------5-5---5-5-------2-2-|
|-2-2---2-2------3-3---3-3-------3-3-|
|-0-0---0-0----------------------5-5-|

|----------------------------|
|---5-7-8-7-5----5-7-4~--5-7-|
|-------------7~-------------|
|-7--------------------------|
|----------------------------|
|----------------------------|
|
|----------------------------|
|----------------------------|
|-------------4-4----2-2-----|
|---2-2-------5-5----4-4-----|
|---3-3----------------------|
|---5-5----------------------|



 Riff 5         x3
|-----------------|----------------|
|-----------------|----------------|
|-----------------|----------------|
|-----------------|----------------|
|-------1---------|--1---2---3---4-|
|-0-000---0-0-3p2-|0---0---0---0---|
  . ...   . .      .   .   .   .


 Fill
|------------------------------------------|
|------------------------------------------|
|------------------------------------------|
|---9"-7"-9"-------------------------------|
|------------10"------7"-6"-7"----6"-7"-9"-|
|-0----------------8"----------7"----------|
|
|------------------------------------------|
|------------------------------------------|
|------------------------------------------|
|------------------5-----------4-----------|
|-2-----------5----3-----------2-----------|
|-0-----------3----------------------------|



 Riff 6
|--------------1~----------------2~---|
|--------------0~----------------3~---|
|-------------------------------------|
|-2~--2\1/2-2~------4~--4\3/4-4~------|
|-3~--3\2/3-3~------5~--5\4/5-5~------|
|-------------------------------------|


 Riff 4c
|----------------------3-5-7-5-3-----|
|-5~---5-7-8-7-5-7~--5-----------5~--|
|----4-------------------------------|
|------------------------------------|
|------------------------------------|
|------------------------------------|
|
|------------------------------------|
|-5~---5-7-8-7-5-------5-7-8-7-5-----|
|----4-----------5~--5---------------|
|--------------------------------7~--|
|------------------------------------|
|------------------------------------|
|
|------------------------------------|
|------------------------------------|
|------------------------------------|
|----------------5-5---5-5-------2-2-|
|-2-2---2-2------3-3---3-3-------3-3-|
|-0-0---0-0----------------------5-5-|

|---3-5-7-5-3----3-5-----3-5-|-10~-|
|-5-----------5~-----7~------|-----|
|----------------------------|-----|
|----------------------------|-----|
|----------------------------|-----|
|----------------------------|-----|
|
|----------------------------|--5~-|
|---5-7-8-7-5----5-7-4~--5-7-|-----|
|-------------7~-------------|-----|
|-7--------------------------|-----|
|----------------------------|-----|
|----------------------------|-----|
|
|----------------------------|-----|
|----------------------------|-----|
|-------------4-4----2-2-----|-----|
|---2-2-------5-5----4-4-----|-----|
|---3-3----------------------|-----|
|---5-5----------------------|-----|

Добавлено: 25.03.2012
Другие материалы по этой песне:
  • Аккорды и текст

Страница создана 25.03.2012
http://primanota.ru/ablaze-my-sorrow/erasedrelived-chords.htm
Привет, Гость.
Предлагаем пройти революционный курс по гитаре.
Подарок от PrimaNota.Ru, забирай!