PrimaNota.ru - самый крупный в мире бесплатный архив песенных текстов, аккордов, табулатур и нот


Abigail Williams - Watchtower - текст песни, таба, видео

Регистрация Запомнить меня
Войти через:  Facebook Google Twitter Vk Yandex Mail.ru

Abigail Williams - Watchtower - текст песни, таба, видео

Печатать
Просмотров: 129
Авторы музыки: Brad Riffs, Ken Sorceron, Ashley Jurgemeyer
Авторы текста: Ken Sorceron
                                 WATCHTOWER
                              Abigail Williams
                       (From The 2005 Album Legend EP)


Transcribed by Jonathan Casper (confinedforever)

Gtr 1 - Tuning Drop C - (C G C F A D)

/ - SLIDE UP TO          h - HAMMER ON
\ - SLIDE DOWN TO        p - PULL OFF
~ - VIBRATO              * - PALM MUTE
t - TREMOLO PICKING     [] - ARTIFICAL HARMONIC

The Solo is not in this!
This is what i could make out of it, so tell me what u think
and i hope u like it cuz no ones put it up yet, and im pretty sure its more or less 
in all the parts, enjoy!


  GTR 1  (really fast tremlo picking)
|--------------------------------------|
|--------------------------------------|
|--------------------------------------|
|------------------------33------------|
|--------------------------4411--11----|
|-33333333333344444444444------44--44--|
                                                               x2
|----------------------------------------------------------|
|----------------------------------------------------------|
|----------------------------------------------------------|
|----------------------------------------------------------|
|-------------------------11h4411h44-----------------------|
|-333333333333333333333333----------44444444444444444------|


|----------------------------------------------------------------------|
|----------------------------------------------------------------------|
|----------------------------------------------------------------------| x2
|----------------------------------------------------------------------|
|------------------------------------------------11h4411h44------------|
|-33333333333344444444444111111114444333333333333----------4444444444--|


|---------------------------|
|---------------------------|
|---------------------------|
|-3------4-3------3------4--|
|-3------4-3------3------4--|
|-3------4-3------3------4--|


|-------------------------------------------------------------|
|-------------------------------------------------------------|
|-------------------------------------------------------------|
|-------------------------------------------------------------|
|----11t-8t---11t-8t-----11t-8t-----11t-8t-----11t-8t-7t-10t--|
|-10t------10t-------10t--------10t--------10t----------------|
  *        *         *          *          *
                                                               x2
|---------------------------------------------------------|
|---------------------------------------------------------|
|---------------------------------------------------------|
|---------------------------------------------------------|
|----11t-8t---11t-8t-----11t-10t-------3t-4t-8t-4t--------|
|-10t------10t-------10t---------3t-6t-------------7t-4t--|
  *        *         *           *  *  *  *


|------------------------------------------------------------------------|
|------------------------------------------------------------------------|
|------------------------------------------------------------------------|x2
|-------------------------------------------------------------3---1---4--|
|----11t-8t---11t-8t-----11t-8t-----11t-8t-----11t-8t-7t-10t--3---1---4--|
|-10t------10t-------10t--------10t--------10t----------------3---1---4--|
  *        *         *          *          *

|--------------------------------------------------------------|
|--------------------------------------------------------------|
|--------------------------------------------------------------|
|---------------------------------------------15t-13t-11t-13t--|
|-8t-10t-11t-8t-10t-11t-8t-10t-11t-8t-10t-11t------------------|
|--------------------------------------------------------------|
                                                                 x2
|-----------------------------------------------------------|
|-----------------------------------------------------------|
|-----------------------------------------------------------|
|------------------------------13-11-10-8-------------------|
|-8t-10t-11t-8t-10t-11t-8t-10t------------10-11-10h11-10-7--|
|-----------------------------------------------------------|

|-------------------|
|-------------------|
|-------------------|
|-3---2--2h3-2h3----|
|-3---2----------2--|
|-3---2-------------|

|---------------------------------------------------------|
|---------------------------------------------------------|
|---------------------------------------------------------|
|-----------------------------------------------------10--|
|-11-888888-11-888888-11-888888-10-777777--11t-8t-10t-----|
|---------------------------------------------------------|
  *  ****** *  ****** *  ****** *  ******
                                                            x2
|-----------------------------------------------------|
|-----------------------------------------------------|
|-----------------------------------------------------|
|------------------------------------------8t---------|
|-11-888888-11-888888-11-888888-10-777777-----11t-10--|
|-----------------------------------------------------|
  *  ****** *  ****** *  ****** *  ******

|---------------------------------------------------------------|
|---------------------------------------------------------------|
|---------------------------------------------------------------| x2
|----------------------------------------------------3---1---4--|
|----11t-8t---11t-8t-----11t-8t-----11t-8t-----------3---1---4--|
|-10t------10t-------10t--------10t---------5-8-6-5--3---1---4--|
  *        *         *          *

|-------------------|
|-------------------|
|-------------------|
|-------------------|
|-10-11-10h11-10-7--|
|-------------------|

|--------------------------------------------------------------|
|--------------------------------------------------------------|
|--------------------------------------------------------------|
|---------------------------------------------15t-13t-11t-13t--|
|-8t-10t-11t-8t-10t-11t-8t-10t-11t-8t-10t-11t------------------|
|--------------------------------------------------------------|

|-----------------------------------------------------------|
|-----------------------------------------------------------|
|-----------------------------------------------------------|
|------------------------------13-11-10-8-------------------|
|-8t-10t-11t-8t-10t-11t-8t-10t------------10-11-10h11-10-7--|
|-----------------------------------------------------------|

|-----------------------|
|-----------------------|
|-----------------------| x4
|-------------11-10-----|
|-11-8-10-7-8-------13--|
|-----------------------|


  Solo Rhythm
|----------------------------------------------------------------------|
|----------------------------------------------------------------------|
|----------------------------------------------------------------------|x2
|---------------------4t----4t-6t--------------------------------------|
|-3-2t-3-2t-3-2t-3-2t----3t-------3-2t-3-2t-3-2t-3-2t-----11------00---|
|-3----3----3----3----------------3----3----3----3----0044--440044--33-|
  *    *    *    *                *    *    *    *

  (play this section x2)
|-------------------------------------------------------------------------|
|-------------------------------------------------------------------------|
|-------------------------------------------------------------------------|
|-------------------------------------------------------------------------|
|-------1t-2t-1t----------1t-2t-1t----------0t-1t-0t----------0t-1t-0t----|
|-0t-4t----------4t-0t-4t----------4t-0t-3t----------3t-0t-3t----------3t-|


|--------------------------------------------------------------------|
|--------------------------------------------------------------------|
|--------------------------------------------------------------------| x2
|--------------------------------------------------------------------|
|---------111122221111---------------------11111111----1111----------|
|-11111111------------444444333300000000000--------4444----44443333--|


|-----------------|
|-----------------|
|-----------------| x4
|-1----2-2-2-2-1--|
|-1----2-2-2-2-1--|
|-1----2-2-2-2-1--|
       * * * *

|--------------------------|
|--------------------------|
|--------------------------| x2
|-0-0-0-0-8-7---8-8-9-8-7--|
|-0-0-0-0-----9------------|
|-0-0-0-0------------------|
  * * * *

|--------------------------------|
|--------------------------------|
|--------------------------------|
|-1------------------------------|
|-1------------------------------|
|-1---333333333333444444444444---|

  (repeat however many times until the end)
|--------------------------------------------|
|--------------------------------------------|
|--------------------------------------------|
|--------------------------------------------|
|-33-3-3-3-3-33-3-3-3-3-33-3-3-3-3-33-33-33--|
|-33-3-3-3-3-33-3-3-3-3-33-3-3-3-3-33-33-33--|
  ** * * * * ** * * * * ** * * * * ** ** **
Добавлено: 28.02.2012
Вам также может быть интересно:
Другие материалы по этой песне:
  • Аккорды и текст

Страница создана 28.02.2012
http://primanota.ru/abigail-williams/watchtower-chords.htm
Привет, Гость.
Предлагаем пройти революционный курс по гитаре.
Подарок от PrimaNota.Ru, забирай!