PrimaNota.ru - самый крупный в мире бесплатный архив песенных текстов, аккордов, табулатур и нот


Abigail Williams - Procession Of The Aeons - таба, видео

Регистрация Запомнить меня
Войти через:  Facebook Google Twitter Vk Yandex Mail.ru

Abigail Williams - Procession Of The Aeons - таба, видео

Печатать
Просмотров: 123
Авторы музыки: Ken Sorceron
Авторы текста: Ken Sorceron
----------------------------------------------------------------------------
                Procession Of The Aeons - Abigail Williams
----------------------------------------------------------------------------

Tuning: I believe it's tuned down to C Standard? 
        Tabbed in E standard for ease of navigation.

/   slide up
\   slide down
h   hammer-on
p   pull-off
~   vibrato
B   Bend
R   Release

Comments:
I was never gonna put in all the notes, so I tabbed the first few Chords
(See first line of Riff A:) into Blocks of 4's, and then just tabbed the
rest as a single chord (see second line of Riff A:), leaving you to fill
in the rest of the repeated notes as required.


Riff A:
   1   2    3   4    5   6    7   8     1   2    3   4    5   6    7   8
e|-5-5-5-5--5-5-5-5--5-5-5-5--5-5-5-5-|-6-6-6-6--6-6-6-6--4-4-4-4--4-4-4-4--|
B|-5-5-5-5--5-5-5-5--5-5-5-5--5-5-5-5-|-6-6-6-6--6-6-6-6--4-4-4-4--4-4-4-4--|
G|-5-5-5-5--5-5-5-5--5-5-5-5--5-5-5-5-|-6-6-6-6--6-6-6-6--4-4-4-4--4-4-4-4--|
D|------------------------------------|-------------------------------------|
A|------------------------------------|-------------------------------------|
E|------------------------------------|-------------------------------------|

   1   2    3   4    5   6    7   8     1   2    3   4    5   6    7   8
e|-5-5-5-5----------------------------|-11-------10--8----4--------5---7----|
B|-5-5-5-5--etc...--------------------|-11-------10--8----4--------5---7----|
G|-5-5-5-5----------------------------|-11-------10--8----4--------5---7----|
D|------------------------------------|-------------------------------------|
A|------------------------------------|-------------------------------------|
E|------------------------------------|-------------------------------------|


REPEAT Riff A: x1


Riff B: (:With Keyboard:)
   1   2    3   4    5   6    7   8     1   2    3   4    5   6    7   8
e|-5-5-5-5----------------------------|-6--------6--------4--------4--------||
B|-5-5-5-5--etc...--------------------|-6--------6--------4--------4--------||
G|-5-5-5-5----------------------------|-6--------6--------4--------4--------||
D|------------------------------------|-------------------------------------||
A|------------------------------------|-------------------------------------||
E|------------------------------------|-------------------------------------||
 |                                    |                                     ||
 : 1   2    3   4    5   6    7   8   : 1   2    3   4    5   6    7   8    ::
e:-------------------8----------------:-------------------------------------::
B:--------------10-------10-----------:--------------11---12--9-------------::
G:----------9-----------------9-------:----------10----------------9--------::
D:-----7--------------------------7---:-----8--------------------------9----::
A:-7----------------------------------:-8-----------------------------------::
E:------------------------------------:-------------------------------------::

   1   2    3   4    5   6    7   8     1   2    3   4    5   6    7   8
e|-5-5-5-5----------------------------|-11-------10--8----4--------5---7----||
B|-5-5-5-5--etc...--------------------|-11-------10--8----4--------5---7----||
G|-5-5-5-5----------------------------|-11-------10--8----4--------5---7----||
D|------------------------------------|-------------------------------------||
A|------------------------------------|-------------------------------------||
E|------------------------------------|-------------------------------------||
 |                                    |                                     ||
 : 1   2    3   4    5   6    7   8   : 1   2    3   4    5   6    7   8    ::
e:-------------------17---------------:-11-------10--8----4--------5---7----::
B:--------------17-------17-----------:-11-------10--8----4--------5---7----::
G:----------17----------------17------:-11-------10--8----4--------5---7----::
D:-----19-------------------------19--:-------------------------------------::
A:-19---------------------------------:-------------------------------------::
E:------------------------------------:-------------------------------------::


REPEAT Riff B (:With Keyboard:)


Riff C:
   1   2    3   4    5   6    7   8     1   2    3   4    5   6    7   8
e|-5----------------------------------|-1-----------------------------------|
B|-5----------------------------------|-1-----------------------------------|
G|-5----------------------------------|-1-----------------------------------| 
D|-7----------------------------------|-3-----------------------------------|
A|-7----------------------------------|-3-----------------------------------|
E|-5----------------------------------|-1-----------------------------------|

   1   2    3   4    5   6    7   8     1   2    3   4    5   6    7   8
e|-5----------------------------------|-------------------------------------|
B|-5----------------------------------|-------------------------------------|
G|-5----------------------------------|-8--------7---5----4-----------------|
D|-7----------------------------------|-10-------9---7----6--------7---6----|
A|-7----------------------------------|----------------------------8---7----|
E|-5----------------------------------|-------------------------------------|


Riff D:
   1   2    3   4    5   6    7   8     1   2    3   4    5   6    7   8
e|------------------------------------|-------------------------------------|
B|------------------------------------|-------------------------------------|
G|------------------------------------|-------------------------------------|
D|---7------8---7------7------8---7---|-------------------------------------|
A|------------------------------------|---8------7---8------8------7---*----|
E|-5---5-5----5---5--5---5-5----7---5-|-6---6-6----6---6--6---6-6----6-4(B~R)
                                       (*Pinch Harmonic at 4th fret on bend)

   1   2    3   4    5   6    7   8     1   2    3   4    5   6    7   8
e|------------------------------------|-------------------------------------|
B|------------------------------------|-------------------------------------|
G|------------------------------------|-8--------7---5----4-----------------|
D|---7------8---7------7------8---7---|-10-------9---7----6--------7---6----|
A|------------------------------------|----------------------------8---7----|
E|-5---5-5----5---5--5---5-5----7---5-|-------------------------------------|

   1   2    3   4    5   6    7   8     1   2    3   4    5   6    7   8
e|------------------------------------|-------------------------------[*]---|
B|------------------------------------|-------------------------------[*]---|
G|------------------------------------|--------------------------------[*]--|
D|---7------8---7------7------8---7---|--------------------------------[*]--|
A|------------------------------------|---8------7---8------8------7----[*]-|
E|-5---5-5----5---5--5---5-5----7---5-|-6---6-6----6---6--6---6-6----6--[*]-|
                                               [*Pick Scratch Above Pickups*]

   1   2    3   4    5   6    7   8     1   2    3   4    5   6    7   8
e|------------------------------------|-------------------------------------|
B|------------------------------------|-------------------------------------|
G|------------------------------------|-8--------7---5----4-----------------|
D|---7------8---7------7------8---7---|-10-------9---7----6--------7---6----|
A|------------------------------------|----------------------------8---7----|
E|-5---5-5----5---5--5---5-5----7---5-|-------------------------------------|


Riff D: (:With Keyboard:)
   1   2    3   4    5   6    7   8     1   2    3   4    5   6    7   8
e|------------------------------------|-------------------------------------||
B|------------------------------------|-------------------------------------||
G|------------------------------------|-------------------------------------||
D|---7------8---7------7------8---7---|-------------------------------------||
A|------------------------------------|---8------7---8------8------7--------||
E|-5---5-5----5---5--5---5-5----7---5-|-6---6-6----6---6--6---6-6----6-4(B R)|
 |(*Pinch Harmonic @ 4th fret on bend)|                                *    ||
 : 1   2    3   4    5   6    7   8   : 1   2    3   4    5   6    7   8    ::
e:-------12---------------------------:-------------------------------------::
B:----------13------------------------:-14----------------------------------::
G:-----14-------14--------------------:-15----------------------------------::
D:---14-------------------------------:-15----------------------------------::
A:-12---------------------------------:-------------------------------------::
E:------------------------------------:-------------------------------------::

   1   2    3   4    5   6    7   8     1   2    3   4    5   6    7   8
e|------------------------------------|-------------------------------------||
B|------------------------------------|-------------------------------------||
G|------------------------------------|-8--------7---5----4-----------------||
D|---7------8---7------7------8---7---|-10-------9---7----6--------7---6----||
A|------------------------------------|----------------------------8---7----||
E|-5---5-5----5---5--5---5-5----7---5-|-------------------------------------||
 |                                    |                                     ||
 : 1   2    3   4    5   6    7   8   : 1   2    3   4    5   6    7   8    ::
e:-------12---------------------------:-11-------10--8----7--------5---4----::
B:----------13------------------------:-11-------10--8----7--------5---4----::
G:--------------14--------------------:-11-------10--8----7--------5---4----::
D:---14-------------------------------:-------------------------------------::
A:-12---------------------------------:-------------------------------------::
E:------------------------------------:-------------------------------------::

NB: Again, I have not included all the repeated notes.
    Just play each note as rapid alternate picking.

Riff E: (:With keyboard Chords:)
   1   2    3   4    5   6    7   8     1   2    3   4    5   6    7   8
e|------------------------------------|-------------------------------------||
B|------------------------------------|-------------------------------------||
G|------------------------------------|-------------------------------------||
D|------------------------------------|-------------------------------------||
A|----------3---8----7---7----7---7-8-|-10--10---10--8-7--3---3----3---3----||
E|-0---5------------------------------|-------------------------------------||
 |                                    |                                     ||
 : 1   2    3   4    5   6    7   8   : 1   2    3   4    5   6    7   8    ::
e:-5-----------------3----------------:-8-----------------7-----------------::
B:-5-----------------5----------------:-10----------------8-----------------::
G:-5-----------------4----------------:-9-----------------9-----------------::
D:------------------------------------:-------------------------------------::
A:------------------------------------:-------------------------------------::
E:------------------------------------:-------------------------------------::

   1   2    3   4    5   6    7   8     1   2    3   4    5   6    7   8
e|------------------------------------|-------------------------------------||
B|------------------------------------|-------------------------------------||
G|------------------------------------|-------------------------------------||
D|------------------------------------|-------------------------------------||
A|----------3---8----7---7----7---3-2-|--------------2----3---2----3---0----||
E|-0---5------------------------------|-5---4----5--------------------------||
 |                                    |                                     ||
 : 1   2    3   4    5   6    7   8   : 1   2    3   4    5   6    7   8    ::
e:-5-----------------4----------------:-8-----------------7-----------------::
B:-5-----------------5----------------:-10----------------8-----------------::
G:-5-----------------4----------------:-9-----------------9-----------------::
D:------------------------------------:-------------------------------------::
A:------------------------------------:-------------------------------------::
E:------------------------------------:-------------------------------------::

   1   2    3   4    5   6    7   8     1   2    3   4    5   6    7   8
e|------------------------------------|-------------------------------------||
B|--------------6----5---5----5---5-6-|-8---8----8---6-5--------------------||
G|----------5-------------------------|-------------------5---5----5---5----||
D|-----7------------------------------|-------------------------------------||
A|-7----------------------------------|-------------------------------------||
E|------------------------------------|-------------------------------------||
 |                                    |                                     ||
 : 1   2    3   4    5   6    7   8   : 1   2    3   4    5   6    7   8    ::
e:-8-----------------7----------------:-12----------------12----------------::
B:-10----------------8----------------:-13----------------12----------------::
G:-9-----------------9----------------:-14----------------12----------------::
D:------------------------------------:-------------------------------------::
A:------------------------------------:-------------------------------------::
E:------------------------------------:-------------------------------------::

   1   2    3   4    5   6    7   8     1   2    3   4    5   6    7   8
e|------------------------------------|-------------------------------------||
B|------------------------------------|-------------------------------------||
G|------------------------------------|-------------------------------------||
D|------------------------------------|-------------------------------------||
A|-7---0----3---8----7---7----7---3-2-|----------3---2----7---6----8---7----||
E|------------------------------------|-5---4-------------------------------||
 |                                    |                                     ||
 : 1   2    3   4    5   6    7   8   : 1   2    3   4    5   6    7   8    ::
e:-8-----------------7----------------:-5---4----5---4----8---7----13--12---::
B:-10----------------9----------------:-5---5----5---5----10--9----13--12---::
G:-9-----------------9----------------:-5---4----5---4----8---9----14--13---::
D:------------------------------------:-------------------------------------::
A:------------------------------------:-------------------------------------::
E:------------------------------------:-------------------------------------::


Riff D: (:With Keyboard:) X2

Please Note: (For Riff F: only) 
             The count changes (to only 8 counts per line), 
             This is just to get all the notes to fit in.

Riff F:
   1       2        3        4           5        6        7        8        
e|------------------------------------|-------------------------------------||
B|--h-p----------h-p------------------|-------------------------------------||
G|-5-9-5--------4-7-4-----------------|-------------------------------------||
D|------------------------------------|--------------------7----7---6----6--||
A|---------0------------0----0----0---|--7---7----8----8--------------------||
E|------------------------------------|-------------------------------------||
 |                                    |                                     ||
e|------------------------------------|-------------------------------------||
B|------------------------------------|-------------------------------------||
G|--h--p---------h-p------------------|-------------------------------------||
D|-7-10-7-------5-7-5-----------------|--3---3----5----5--------------------||
A|---------0------------0----0----0---|--------------------3----3---3----3--||
E|------------------------------------|-------------------------------------||

   1       2        3        4           5        6        7        8        
e|------------------------------------|-------------------------------------||
B|------h-p----------h-p--------------|-------------------------------------||
G|-----5-9-5--------4-7-4-------------|-------------------------------------||
D|------------------------------------|-6-7-6----------6--------------------||
A|-0------------0------------0----0---|-----------8--------7----6----5------||
E|------------------------------------|-------------------------------------||
 |                                    |                                     ||
e|------------------------------------|-------------------------------------||
B|------------------------------------|-------------------------------------||
G|------h--p---------h-p--------------|-------------------------------------||
D|-----7-10-7-------5-7-5-------------|-------------------------------------||
A|-0------------0------------0----0---|-5-6-5-----3----5---3----0-----------||
E|------------------------------------|------------------------------4~-----||


REPEAT Riff F x3


NB: Count now resumes back to 16 counts (2 lots of 8 counts) per line.

Riff G:
   1   2    3   4    5   6    7   8     1   2    3   4    5   6    7   8
e|(8)---------------------------------|(8-/-10)-----------------------------|
B|(6)---------------------------------|(6-/-8)------------------------------|
G|(5)---------------------------------|(5-/-7)------------------------------|
D|-3----------------------------------|/5-----------------------------------|
A|-3----------------------------------|/5-----------------------------------|
E|-1----------------------------------|/3-----------------------------------|

e|(10/-12)----------(12)--------------|(12)--(13)-p-(12)----------(12)~\----||
B|(8-/-10)----------(10)--------------|(13)----------------------------*----||
G|(7-/-9)-----------(9)---------------|(13)---------------------------[5]~--||
D|/7----------------------------------|-10----------------2------5----------||
A|/7----------------------------------|-10------------------3-3-------------||
E|/5----------------------------------|-8-----------------------------------||
 |                                    |            [*Pinch Harm at 5th fret]||
 | 1   2    3   4    5   6    7   8   | 1   2    3   4    5   6    7   8    ||
e|------------------------------------|-------------------------------------||
B|------------------------------------|-------------------------------------||
G|------------------------------------|-------------------------------------||
D|------------------------------------|-------------------10-----9~~~-------||
A|------------------------------------|-----------------------7-------------||
E|------------------------------------|---------------------8---------------||


REPEAT: Riff G: x1


Riff H: (See notes from Riff A:)
   1   2    3   4    5   6    7   8     1   2    3   4    5   6    7   8
e|-5-5-5-5----------------------------|-6--------6--------6--------4--------|
B|-5-5-5-5--etc...--------------------|-6--------6--------6--------4--------|
G|-5-5-5-5----------------------------|-6--------6--------6--------4--------|
D|------------------------------------|-------------------------------------|
A|------------------------------------|-------------------------------------|
E|------------------------------------|-------------------------------------|

   1   2    3   4    5   6    7   8     1   2    3   4    5   6    7   8
e|-5-5-5-5------------------------11--|-10-------------------------8-8-8----|
B|-5-5-5-5--etc...----------------11--|-10-------------------------8-8-8----|
G|-5-5-5-5------------------------11--|-10-------------------------8-8-8----|
D|------------------------------------|-------------------------------------|
A|------------------------------------|-------------------------------------|
E|------------------------------------|-------------------------------------|


REPEAT Riff H: x1

REPEAT Riff D: x2 (Excluding Keyboard Part)

REPEAT Riff F: x2

REPEAT Riff G: x2

REPEAT Riff H: x2


Добавлено: 10.08.2015
Другие материалы по этой песне:
  • Аккорды и текст

Страница создана 10.08.2015
http://primanota.ru/abigail-williams/procession-of-aeons-chords.htm
Привет, Гость.
Предлагаем пройти революционный курс по гитаре.
Подарок от PrimaNota.Ru, забирай!