PrimaNota.ru - самый крупный в мире бесплатный архив песенных текстов, аккордов, табулатур и нот


Abazagorath - The Antigod - таба, видео

Регистрация Запомнить меня
Войти через:  Facebook Google Twitter Vk Yandex Mail.ru

Abazagorath - The Antigod - таба, видео

Печатать
Просмотров: 65
-----------------------------------------------------------------------------
                             THE ANTIGOD - Abazagorath
-----------------------------------------------------------------------------
Tabbed by:  gorgoroth15
Email:  n/a

www.facebook.com/abazagorath666


Tuning:  Whole step down



gtr 1

D  :| -------------------------------|-------------------------------|
A  :| 8-8-8-8-8-8-8-8----------------|-------------------------------|
F  :|*9-9-9-9-9-9-9-9----------------|4-4-4-4-4-4-4-4-4-4-4-4-4-4-4-4|
C  :|*9-9-9-9-9-9-9-9----------------|5-5-5-5-5-5-5-5-5-5-5-5-5-5-5-5|
G  :| 7-7-7-7-7-7-7-7----------------|7-7-7-7-7-7-7-7-7-7-7-7-7-7-7-7|
D  :| ----------------0-0-0-0-0-0-0-0|-------------------------------|

gtr 2

D  :| -------------------------------|-------------------------------|
A  :| 8-8-8-8-8-8-8-8----------------|-------------------------------|
F  :|*9-9-9-9-9-9-9-9----------------|4-4-4-4-4-4-4-4-4-4-4-4-4-4-4-4|
C  :|*9-9-9-9-9-9-9-9----------------|5-5-5-5-5-5-5-5-5-5-5-5-5-5-5-5|
G  :| 7-7-7-7-7-7-7-7----------------|7-7-7-7-7-7-7-7-7-7-7-7-7-7-7-7|
D  :| ----------------0-0-0-0-0-0-0-0|-------------------------------|

============================================================================

D  :-------------------------------|------------------------------- 1|
A  :7-7-7-7-7-7-7-7----------------|------------------------------- ||
F  :8-8-8-8-8-8-8-8----------------|0-0-0-0-0-0-0-0-0-0-0-0-0-0-0-0*||
C  :8-8-8-8-8-8-8-8----------------|1-1-1-1-1-1-1-1-1-1-1-1-1-1-1-1*||
G  :6-6-6-6-6-6-6-6----------------|3-3-3-3-3-3-3-3-3-3-3-3-3-3-3-3 ||
D  :----------------0-0-0-0-0-0-0-0|------------------------------- ||


D  :-------------------------------|------------------------------- 1|
A  :7-7-7-7-7-7-7-7----------------|------------------------------- ||
F  :8-8-8-8-8-8-8-8----------------|0-0-0-0-0-0-0-0-0-0-0-0-0-0-0-0*||
C  :8-8-8-8-8-8-8-8----------------|1-1-1-1-1-1-1-1-1-1-1-1-1-1-1-1*||
G  :6-6-6-6-6-6-6-6----------------|3-3-3-3-3-3-3-3-3-3-3-3-3-3-3-3 ||
D  :----------------0-0-0-0-0-0-0-0|------------------------------- ||

============================================================================


D  :| -------------------------------|
A  :| 8-8-8-8-8-8-8-8----------------|
F  :|*9-9-9-9-9-9-9-9----------------|
C  :|*9-9-9-9-9-9-9-9----------------|
G  :| 7-7-7-7-7-7-7-7----------------|
D  :| ----------------0-0-0-0-0-0-0-0|



D  :| -------------------------------|
A  :| -------------------------------|
F  :|*9-9-9-9-9-9-9-9----------------|
C  :|*-------------------------------|
G  :| 7-7-7-7-7-7-7-7----------------|
D  :| ----------------0-0-0-0-0-0-0-0|

============================================================================


D  :-----------------------------------------------|
A  :-----------------------------------------------|
F  :-4--4--4--4--4--4--4--4--4--4--4--4--4--4--4--4|
C  :-5--5--5--5--5--5--5--5--5--5--5--5--5--5--5--5|
G  :-7--7--7--7--7--7--7--7--7--7--7--7--7--7--7--7|
D  :-----------------------------------------------|

D  :-----------------------------------------------|
A  :-----------------------------------------------|
F  :12-12-12-12-12-12-12-12-12-12-12-12-12-12-12-12|
C  :-----------------------------------------------|
G  :10-10-10-10-10-10-10-10-10-10-10-10-10-10-10-10|
D  :-----------------------------------------------|

============================================================================

D  :-----------------------------------------------|
A  :-7--7--7--7--7--7--7--7------------------------|
F  :-8--8--8--8--8--8--8--8------------------------|
C  :-8--8--8--8--8--8--8--8------------------------|
G  :-6--6--6--6--6--6--6--6------------------------|
D  :-------------------------0--0--0--0--0--0--0--0|

D  :-----------------------------------------------|
A  :-----------------------------------------------|
F  :11-11-11-11-11-11-11-11-12-12-12-12-11-11-11-11|
C  :-----------------------------------------------|
G  :-9--9--9--9--9--9--9--9-10-10-10-10--9--9--9--9|
D  :-----------------------------------------------|

============================================================================

D  :------------------------------- 3|-----------------------------------|
A  :------------------------------- ||-----------------------------------|
F  :0-0-0-0-0-0-0-0-0-0-0-0-0-0-0-0*||-----------------------------------|
C  :1-1-1-1-1-1-1-1-1-1-1-1-1-1-1-1*||-----------------------------------|
G  :3-3-3-3-3-3-3-3-3-3-3-3-3-3-3-3 ||--------7-7-7-7-10-10-10-10-7-7-7-7|
D  :------------------------------- ||0-0-0-0----------------------------|

D  :------------------------------- 3|-----------------------------------|
A  :------------------------------- ||-----------------------------------|
F  :8-8-8-8-8-8-8-8-8-8-8-8-8-8-8-8*||-----------------------------------|
C  :-------------------------------*||-----------------------------------|
G  :6-6-6-6-6-6-6-6-6-6-6-6-6-6-6-6 ||7-7-7-7-7-7-7-7--7--7--7--7-7-7-7-7|
D  :------------------------------- ||0-0-0-0-0-0-0-0--0--0--0--0-0-0-0-0|

============================================================================

D  :-----------------------------------|
A  :-----------------------------------|
F  :-----------------------------------|
C  :-----------------------------------|
G  :--------9-9-9-9-12-12-12-12-9-9-9-9|
D  :0-0-0-0----------------------------|

D  :-----------------------------------|
A  :-----------------------------------|
F  :-----------------------------------|
C  :-----------------------------------|
G  :9-9-9-9-9-9-9-9--9--9--9--9-9-9-9-9|
D  :0-0-0-0-0-0-0-0--0--0--0--0-0-0-0-0|

============================================================================

D  :-----------------------------------------------|
A  :-----------------------------------------------|
F  :-----------------------------------------------|
C  :-----------------------------------------------|
G  :------------10-10-10-10-13-13-13-13-10-10-10-10|
D  :-0--0--0--0------------------------------------|

D  :-----------------------------------------------|
A  :-----------------------------------------------|
F  :-----------------------------------------------|
C  :-----------------------------------------------|
G  :10-10-10-10-10-10-10-10-10-10-10-10-10-10-10-10|
D  :-0--0--0--0--0--0--0--0--0--0--0--0--0--0--0--0|

============================================================================

D  :-------------------------------|-----------------------------------|
A  :-------------------------------|-----------------------------------|
F  :-------------------------------|-----------------------------------|
C  :-------------------------------|-----------------------------------|
G  :--------6-6-6-6-9-9-9-9-6-6-6-6|--------7-7-7-7-10-10-10-10-7-7-7-7|
D  :0-0-0-0------------------------|0-0-0-0----------------------------|

D  :-------------------------------|-----------------------------------|
A  :-------------------------------|-----------------------------------|
F  :-------------------------------|-----------------------------------|
C  :-------------------------------|-----------------------------------|
G  :6-6-6-6-6-6-6-6-6-6-6-6-6-6-6-6|7-7-7-7-7-7-7-7--7--7--7--7-7-7-7-7|
D  :0-0-0-0-0-0-0-0-0-0-0-0-0-0-0-0|0-0-0-0-0-0-0-0--0--0--0--0-0-0-0-0|

============================================================================

D  :-----------------------------------|
A  :-----------------------------------|
F  :-----------------------------------|
C  :-----------------------------------|
G  :--------9-9-9-9-12-12-12-12-9-9-9-9|
D  :0-0-0-0----------------------------|

D  :-----------------------------------|
A  :-----------------------------------|
F  :-----------------------------------|
C  :-----------------------------------|
G  :9-9-9-9-9-9-9-9--9--9--9--9-9-9-9-9|
D  :0-0-0-0-0-0-0-0--0--0--0--0-0-0-0-0|

============================================================================

D  :-----------------------------------------------|
A  :-----------------------------------------------|
F  :-----------------------------------------------|
C  :-----------------------------------------------|
G  :------------10-10-10-10-13-13-13-13-10-10-10-10|
D  :-0--0--0--0------------------------------------|

D  :-----------------------------------------------|
A  :-----------------------------------------------|
F  :-----------------------------------------------|
C  :-----------------------------------------------|
G  :10-10-10-10-10-10-10-10-10-10-10-10-10-10-10-10|
D  :-0--0--0--0--0--0--0--0--0--0--0--0--0--0--0--0|

============================================================================

D  :-----------------------------------|
A  :-----------------------------------|
F  :-----------------------------------|
C  :----------------7-7-7-7-10-10-10-10|
G  :6-6-6-6-9-9-9-9--------------------|
D  :-----------------------------------|

D  :-----------------------------------|
A  :-----------------------------------|
F  :-----------------------------------|
C  :----------------7-7-7-7-10-10-10-10|
G  :6-6-6-6-9-9-9-9--------------------|
D  :-----------------------------------|

============================================================================

D  :| -----------------------------------|
A  :| -----------------------------------|
F  :|*-----------------------------------|
C  :|*-----------------------------------|
G  :| 10-10-10-10-7-7-7-7----------------|
D  :| --------------------0-0-0-0-0-0-0-0|

D  :| -----------------------------------|
A  :| -----------------------------------|
F  :|*-----------------------------------|
C  :|*-----------------------------------|
G  :| 10-10-10-10-7-7-7-7----------------|
D  :| --------------------0-0-0-0-0-0-0-0|

============================================================================

D  :---------------------------------------|
A  :---------------------------------------|
F  :---------------------------------------|
C  :---------------------------------------|
G  :10-10-10-10-7-7-7-7---------10-10-10-10|
D  :--------------------0-0-0-0------------|

D  :---------------------------------------|
A  :---------------------------------------|
F  :---------------------------------------|
C  :---------------------------------------|
G  :10-10-10-10-7-7-7-7---------10-10-10-10|
D  :--------------------0-0-0-0------------|

============================================================================

D  :-------------------------------------------|
A  :-------------------------------------------|
F  :-------------------------------------------|
C  :-------------------------------------------|
G  :12-12-12-12-9-9-9-9------------------------|
D  :--------------------11-11-11-11-11-11-11-11|

D  :-------------------------------------------|
A  :-------------------------------------------|
F  :-------------------------------------------|
C  :-------------------------------------------|
G  :12-12-12-12-9-9-9-9------------------------|
D  :--------------------11-11-11-11-11-11-11-11|

============================================================================

D  :-----------------------------------|-----------------------------------|
A  :-----------------------------------|-----------------------------------|
F  :-----------------------------------|-----------------------------------|
C  :--------------------9-9-9-9--------|-----------------------------------|
G  :12-12-12-12-9-9-9-9---------9-9-9-9|10-10-10-10-7-7-7-7----------------|
D  :-----------------------------------|--------------------0-0-0-0-0-0-0-0|

D  :-----------------------------------|-----------------------------------|
A  :-----------------------------------|-----------------------------------|
F  :-----------------------------------|-----------------------------------|
C  :--------------------9-9-9-9--------|-----------------------------------|
G  :12-12-12-12-9-9-9-9---------9-9-9-9|10-10-10-10-7-7-7-7----------------|
D  :-----------------------------------|--------------------0-0-0-0-0-0-0-0|

============================================================================

D  :---------------------------------------|-------------------------------|
A  :---------------------------------------|-------------------------------|
F  :---------------------------------------|-------------------------------|
C  :---------------------------------------|-------------------------------|
G  :10-10-10-10-7-7-7-7---------10-10-10-10|9-9-9-9-6-6-6-6----------------|
D  :--------------------0-0-0-0------------|----------------8-8-8-8-8-8-8-8|

D  :---------------------------------------|-------------------------------|
A  :---------------------------------------|-------------------------------|
F  :---------------------------------------|-------------------------------|
C  :---------------------------------------|-------------------------------|
G  :10-10-10-10-7-7-7-7---------10-10-10-10|9-9-9-9-6-6-6-6----------------|
D  :--------------------0-0-0-0------------|----------------8-8-8-8-8-8-8-8|

============================================================================

D  :------------------------------- 1|| ----------------------------------|
A  :------------------------------- ||| ----------------------------------|
F  :-------------------------------*|||*----------------------------------|
C  :-------------------------------*|||*----------------------------------|
G  :9-9-9-9-6-6-6-6-----6-6-9-9-6-6 ||| 7-10-----6-9-----7-10-----9-12----|
D  :----------------8-8------------ ||| -----0-0-----0-0------0-0------0-0|

D  :------------------------------- 1|| ----------------------------------|
A  :------------------------------- ||| ----------------------------------|
F  :-------------------------------*|||*----------------------------------|
C  :-------------------------------*|||*----------------------------------|
G  :9-9-9-9-6-6-6-6-----6-6-9-9-6-6 ||| 7-10-----6-9-----7-10-----9-12----|
D  :----------------8-8------------ ||| -----0-0-----0-0------0-0------0-0|

============================================================================

D  :-------------------------------- 3|
A  :-------------------------------- ||
F  :--------------------------------*||
C  :---------------------5-5-4-4----*||
G  :7-10-----6-9-----3-3---------6-6 ||
D  :-----0-0-----0-0---------------- ||

D  :-------------------------------- 3|
A  :-------------------------------- ||
F  :--------------------------------*||
C  :---------------------5-5-4-4----*||
G  :7-10-----6-9-----3-3---------6-6 ||
D  :-----0-0-----0-0---------------- ||

============================================================================

D  :| -----------------------------------|
A  :| -----------------------------------|
F  :|*-----------------------------------|
C  :|*-----------------------------------|
G  :| 10-10-10-10-7-7-7-7----------------|
D  :| --------------------0-0-0-0-0-0-0-0|

D  :| -----------------------------------|
A  :| -----------------------------------|
F  :|*-----------------------------------|
C  :|*-----------------------------------|
G  :| -7--7--7--7-7-7-7-7-7-7-7-7-7-7-7-7|
D  :| -0--0--0--0-0-0-0-0-0-0-0-0-0-0-0-0|

============================================================================

D  :---------------------------------------|
A  :---------------------------------------|
F  :---------------------------------------|
C  :---------------------------------------|
G  :10-10-10-10-7-7-7-7---------10-10-10-10|
D  :--------------------0-0-0-0------------|

D  :---------------------------------------|
A  :---------------------------------------|
F  :---------------------------------------|
C  :---------------------------------------|
G  :-7--7--7--7-7-7-7-7-7-7-7-7--7--7--7--7|
D  :-0--0--0--0-0-0-0-0-0-0-0-0--0--0--0--0|

============================================================================

D  :-----------------------------------------------|
A  :-----------------------------------------------|
F  :-----------------------------------------------|
C  :-----------------------------------------------|
G  :12-12-12-12--9--9--9--9------------------------|
D  :------------------------11-11-11-11-11-11-11-11|

D  :-----------------------------------------------|
A  :-----------------------------------------------|
F  :-----------------------------------------------|
C  :-----------------------------------------------|
G  :-9--9--9--9--9--9--9--9--9--9--9--9--9--9--9--9|
D  :11-11-11-11-11-11-11-11-11-11-11-11-11-11-11-11|

============================================================================

D  :-----------------------------------------------|
A  :-----------------------------------------------|
F  :-----------------------------------------------|
C  :-------------------------9--9--9--9------------|
G  :12-12-12-12--9--9--9--9--------------9--9--9--9|
D  :-----------------------------------------------|

D  :-----------------------------------------------|
A  :-----------------------------------------------|
F  :-----------------------------------------------|
C  :-----------------------------------------------|
G  :-9--9--9--9--9--9--9--9--9--9--9--9--9--9--9--9|
D  :11-11-11-11-11-11-11-11-11-11-11-11-11-11-11-11|

============================================================================

D  :-----------------------------------|
A  :-----------------------------------|
F  :-----------------------------------|
C  :-----------------------------------|
G  :10-10-10-10-7-7-7-7----------------|
D  :--------------------0-0-0-0-0-0-0-0|

D  :-----------------------------------|
A  :-----------------------------------|
F  :-----------------------------------|
C  :-----------------------------------|
G  :-7--7--7--7-7-7-7-7-7-7-7-7-7-7-7-7|
D  :-0--0--0--0-0-0-0-0-0-0-0-0-0-0-0-0|

============================================================================

D  :---------------------------------------|-------------------------------|
A  :---------------------------------------|-------------------------------|
F  :---------------------------------------|-------------------------------|
C  :---------------------------------------|-------------------------------|
G  :10-10-10-10-7-7-7-7---------10-10-10-10|9-9-9-9-6-6-6-6----------------|
D  :--------------------0-0-0-0------------|----------------8-8-8-8-8-8-8-8|

D  :---------------------------------------|-------------------------------|
A  :---------------------------------------|-------------------------------|
F  :---------------------------------------|-------------------------------|
C  :---------------------------------------|-------------------------------|
G  :-7--7--7--7-7-7-7-7-7-7-7-7--7--7--7--7|6-6-6-6-6-6-6-6-6-6-6-6-6-6-6-6|
D  :-0--0--0--0-0-0-0-0-0-0-0-0--0--0--0--0|8-8-8-8-8-8-8-8-8-8-8-8-8-8-8-8|

============================================================================

D  :------------------------------- 1|| ----------------------------------|
A  :------------------------------- ||| ----------------------------------|
F  :-------------------------------*|||*----------------------------------|
C  :-------------------------------*|||*----------------------------------|
G  :9-9-9-9-6-6-6-6-----6-6-9-9-6-6 ||| 7-10-----6-9-----7-10-----9-12----|
D  :----------------8-8------------ ||| -----0-0-----0-0------0-0------0-0|

D  :------------------------------- 1|| ----------------------------------|
A  :------------------------------- ||| ----------------------------------|
F  :-------------------------------*|||*----------------------------------|
C  :-------------------------------*|||*----------------------------------|
G  :6-6-6-6-6-6-6-6-6-6-6-6-9-9-6-6 ||| 7-10-----6-9-----7-10-----9-12----|
D  :8-8-8-8-8-8-8-8-8-8-8-8-8-8-8-8 ||| -----0-0-----0-0------0-0------0-0|

============================================================================

D  :-------------------------------- 3|
A  :-------------------------------- ||
F  :--------------------------------*||
C  :---------------------5-5-4-4----*||
G  :7-10-----6-9-----3-3---------6-6 ||
D  :-----0-0-----0-0---------------- ||

D  :-------------------------------- 3|
A  :-------------------------------- ||
F  :--------------------------------*||
C  :---------------------5-5-4-4----*||
G  :7-10-----6-9-----3-3---------6-6 ||
D  :-----0-0-----0-0---------------- ||

============================================================================

D  :| -----------------------------------|
A  :| -----------------------------------|
F  :|*-----------------------------------|
C  :|*--------9-9-9-9-8-8-8-8------------|
G  :| 7-7-7-7-----------------10-10-10-10|
D  :| -----------------------------------|

D  :| -----------------------------------|
A  :| -----------------------------------|
F  :|*-----------------------------------|
C  :|*5-5-5-5-5-5-5-5-5-5-5-5--5--5--5--5|
G  :| 7-7-7-7-7-7-7-7-7-7-7-7--7--7--7--7|
D  :| -----------------------------------|

============================================================================

D  :-----------------------------------|-----------------------------------|
A  :-----------------------------------|-----------------------------------|
F  :-----------------------------------|-----------------------------------|
C  :----------------------------9-9-9-9|8-8-8-8----------------------------|
G  :10-10-10-10-9-9-9-9-6-6-6-6--------|--------9-9-9-9-9-9-9-9-10-10-10-10|
D  :-----------------------------------|-----------------------------------|

D  :-----------------------------------|-----------------------------------|
A  :-----------------------------------|-----------------------------------|
F  :-----------------------------------|-----------------------------------|
C  :-5--5--5--5-5-5-5-5-5-4-4-4-4-4-4-4|4-4-4-4-4-4-4-4-4-4-4-4--4--4--4--4|
G  :-7--7--7--7-7-7-7-7-7-6-6-6-6-6-6-6|6-6-6-6-6-6-6-6-6-6-6-6--6--6--6--6|
D  :-----------------------------------|-----------------------------------|

============================================================================

D  :-----------------------------------|-----------------------------------|
A  :-----------------------------------|-----------------------------------|
F  :-----------------------------------|-----------------------------------|
C  :--------9-9-9-9-8-8-8-8------------|-----------------------------------|
G  :7-7-7-7-----------------10-10-10-10|10-10-10-10-9-9-9-9---------6-6-6-6|
D  :-----------------------------------|--------------------8-8-8-8--------|

D  :-----------------------------------|-----------------------------------|
A  :-----------------------------------|-----------------------------------|
F  :-----------------------------------|-----------------------------------|
C  :5-5-5-5-5-5-5-5-5-5-5-5--5--5--5--5|-5--5--5--5-5-5-5-5----------------|
G  :7-7-7-7-7-7-7-7-7-7-7-7--7--7--7--7|-7--7--7--7-7-7-7-7-6-6-6-6-6-6-6-6|
D  :-----------------------------------|--------------------8-8-8-8-8-8-8-8|

============================================================================

D  :--------------------------------------- 3|
A  :--------------------------------------- ||
F  :---------------------------------------*||
C  :---------------------------------------*||
G  :7-7-7-7-10-10-10-10-10-10-10-10-9-9-9-9 ||
D  :--------------------------------------- ||

D  :--------------------------------------- 3|
A  :--------------------------------------- ||
F  :---------------------------------------*||
C  :---------------------------------------*||
G  :6-6-6-6-10-10-10-10-10-10-10-10-9-9-9-9 ||
D  :8-8-8-8--8--8--8--8--8--8--8--8-8-8-8-8 ||

============================================================================

D  :| ---------------------------------------|
A  :| ---------------------------------------|
F  :|*---------------------------------------|
C  :|*10-10-10-10-10-10-10-10-9-9-9-9-9-9-9-9|
G  :| -7--7--7--7--7--7--7--7-7-7-7-7-7-7-7-7|
D  :| ---------------------------------------|

D  :| ---------------------------------------|
A  :| ---------------------------------------|
F  :|*---------------------------------------|
C  :|*10-10-10-10-10-10-10-10-9-9-9-9-9-9-9-9|
G  :| -7--7--7--7--7--7--7--7-7-7-7-7-7-7-7-7|
D  :| ---------------------------------------|

============================================================================

D  :-----------------------------------------------|
A  :-----------------------------------------------|
F  :-----------------------------------------------|
C  :13-13-13-13-13-13-13-13-12-12-12-12-12-12-12-12|
G  :10-10-10-10-10-10-10-10-10-10-10-10-10-10-10-10|
D  :-----------------------------------------------|

D  :-----------------------------------------------|
A  :-----------------------------------------------|
F  :-----------------------------------------------|
C  :13-13-13-13-13-13-13-13-12-12-12-12-12-12-12-12|
G  :10-10-10-10-10-10-10-10-10-10-10-10-10-10-10-10|
D  :-----------------------------------------------|

============================================================================

D  :---------------------------------------|
A  :---------------------------------------|
F  :---------------------------------------|
C  :10-10-10-10-10-10-10-10-9-9-9-9-9-9-9-9|
G  :-7--7--7--7--7--7--7--7-7-7-7-7-7-7-7-7|
D  :---------------------------------------|

D  :---------------------------------------|
A  :---------------------------------------|
F  :---------------------------------------|
C  :10-10-10-10-10-10-10-10-9-9-9-9-9-9-9-9|
G  :-7--7--7--7--7--7--7--7-7-7-7-7-7-7-7-7|
D  :---------------------------------------|

============================================================================

D  :--------------------------------------- 3|| ----------------|
A  :--------------------------------------- ||| 8-------7-------|
F  :---------------------------------------*|||*9-------9-------|
C  :10-10-10-10-10-10-10-10-6-6-6-6-6-6-6-6*|||*9-------9-------|
G  :-8--8--8--8--8--8--8--8-8-8-8-8-8-8-8-8 ||| 7-------7-------|
D  :--------------------------------------- ||| 7-------7-------|

D  :--------------------------------------- 3|| ----------------|
A  :--------------------------------------- ||| 8-------7-------|
F  :---------------------------------------*|||*9-------9-------|
C  :10-10-10-10-10-10-10-10-6-6-6-6-6-6-6-6*|||*9-------9-------|
G  :-8--8--8--8--8--8--8--8-8-8-8-8-8-8-8-8 ||| 7-------7-------|
D  :--------------------------------------- ||| 7-------7-------|

============================================================================

D  :------------------|----------------|------------------------------- 1|
A  :11-------10-------|8-------7-------|------------------------------- ||
F  :12-------12-------|9-------9-------|-------------------------------*||
C  :12-------12-------|9-------9-------|-------------------------------*||
G  :10-------10-------|7-------7-------|6-6-6-6-7-7-7-7-9-9-9-9-6-6-6-6 ||
D  :10-------10-------|7-------7-------|------------------------------- ||

D  :------------------|----------------|------------------------------- 1|
A  :11-------10-------|8-------7-------|------------------------------- ||
F  :12-------12-------|9-------9-------|-------------------------------*||
C  :12-------12-------|9-------9-------|-------------------------------*||
G  :10-------10-------|7-------7-------|6-6-6-6-7-7-7-7-9-9-9-9-6-6-6-6 ||
D  :10-------10-------|7-------7-------|------------------------------- ||

============================================================================

D  :-----------------------------------|-------------------------------|
A  :-----------------------------------|-------------------------------|
F  :-----------------------------------|-------------------------------|
C  :--------------------9-9-9-9-8-8-8-8|8-8-8-8-----------------5-5-5-5|
G  :7-7-7-7-10-10-10-10----------------|--------3-3-3-3-6-6-6-6--------|
D  :-----------------------------------|-------------------------------|

D  :-----------------------------------|-------------------------------|
A  :-----------------------------------|-------------------------------|
F  :-----------------------------------|-------------------------------|
C  :--------------------9-9-9-9-8-8-8-8|8-8-8-8-----------------5-5-5-5|
G  :7-7-7-7-10-10-10-10----------------|--------3-3-3-3-6-6-6-6--------|
D  :-----------------------------------|-------------------------------|

============================================================================

D  :-------------------------------|-----------------------------------|
A  :-------------------------------|-----------------------------------|
F  :-------------------------------|-----------------------------------|
C  :4-4-4-4-4-4-4-4----------------|------------9-9-9-9-8-8-8-8-8-8-8-8|
G  :----------------6-6-6-6-7-7-7-7|10-10-10-10------------------------|
D  :-------------------------------|-----------------------------------|

D  :-------------------------------|-----------------------------------|
A  :-------------------------------|-----------------------------------|
F  :-------------------------------|-----------------------------------|
C  :4-4-4-4-4-4-4-4----------------|------------9-9-9-9-8-8-8-8-8-8-8-8|
G  :----------------6-6-6-6-7-7-7-7|10-10-10-10------------------------|
D  :-------------------------------|-----------------------------------|

============================================================================

D  :-------------------------------|-----------------------------------|
A  :-------------------------------|-----------------------------------|
F  :-------------------------------|-----------------------------------|
C  :----------------7-7-7-7-5-5-5-5|5-5-5-5----------------------------|
G  :6-6-6-6-9-9-9-9----------------|--------6-6-6-6-7-7-7-7-10-10-10-10|
D  :-------------------------------|-----------------------------------|

D  :-------------------------------|-----------------------------------|
A  :-------------------------------|-----------------------------------|
F  :-------------------------------|-----------------------------------|
C  :----------------7-7-7-7-5-5-5-5|5-5-5-5----------------------------|
G  :6-6-6-6-9-9-9-9----------------|--------6-6-6-6-7-7-7-7-10-10-10-10|
D  :-------------------------------|-----------------------------------|

============================================================================

D  :-------------------------------|-------------------------------|
A  :-------------------------------|-------------------------------|
F  :-------------------------------|-------------------------------|
C  :9-9-9-9-8-8-8-8-8-8-8-8--------|--------5-5-5-5-4-4-4-4-4-4-4-4|
G  :------------------------3-3-3-3|6-6-6-6------------------------|
D  :-------------------------------|-------------------------------|

D  :-------------------------------|-------------------------------|
A  :-------------------------------|-------------------------------|
F  :-------------------------------|-------------------------------|
C  :9-9-9-9-8-8-8-8-8-8-8-8--------|--------5-5-5-5-4-4-4-4-4-4-4-4|
G  :------------------------3-3-3-3|6-6-6-6------------------------|
D  :-------------------------------|-------------------------------|

============================================================================

D  :-----------------------------------|-------------------------------|
A  :-----------------------------------|-------------------------------|
F  :-----------------------------------|-------------------------------|
C  :----------------------------9-9-9-9|8-8-8-8-8-8-8-8----------------|
G  :6-6-6-6-7-7-7-7-10-10-10-10--------|----------------6-6-6-6-9-9-9-9|
D  :-----------------------------------|-------------------------------|

D  :-----------------------------------|-------------------------------|
A  :-----------------------------------|-------------------------------|
F  :-----------------------------------|-------------------------------|
C  :----------------------------9-9-9-9|8-8-8-8-8-8-8-8----------------|
G  :6-6-6-6-7-7-7-7-10-10-10-10--------|----------------6-6-6-6-9-9-9-9|
D  :-----------------------------------|-------------------------------|

============================================================================

D  :-------------------------------|| ----------------|
A  :-------------------------------|| 8---------------|
F  :-------------------------------||*9---------------|
C  :7-7-7-7-5-5-5-5-5-5-5-5--------||*9---------------|
G  :------------------------6-6-6-6|| 7-------2-------|
D  :-------------------------------|| --------0-------|

D  :-------------------------------|| ----------------|
A  :-------------------------------|| 8---------------|
F  :-------------------------------||*9---------------|
C  :7-7-7-7-5-5-5-5-5-5-5-5--------||*9---------------|
G  :------------------------6-6-6-6|| 7-------2-------|
D  :-------------------------------|| --------0-------|

============================================================================

D  :-------------------------------|----------------|
A  :-------------------------------|7---------------|
F  :4-4-4-4-4-4-4-4-4-4-4-4-4-4-4-4|8---------------|
C  :5-5-5-5-5-5-5-5-5-5-5-5-5-5-5-5|8---------------|
G  :7-7-7-7-7-7-7-7-7-7-7-7-7-7-7-7|6-------2-------|
D  :-------------------------------|--------0-------|

D  :-------------------------------|----------------|
A  :-------------------------------|7---------------|
F  :4-4-4-4-4-4-4-4-4-4-4-4-4-4-4-4|8---------------|
C  :5-5-5-5-5-5-5-5-5-5-5-5-5-5-5-5|8---------------|
G  :7-7-7-7-7-7-7-7-7-7-7-7-7-7-7-7|6-------2-------|
D  :-------------------------------|--------0-------|

============================================================================

D  :------------------------------- 1|| ----------------|
A  :------------------------------- ||| 8---------------|
F  :0-0-0-0-0-0-0-0-0-0-0-0-0-0-0-0*|||*9---------------|
C  :1-1-1-1-1-1-1-1-1-1-1-1-1-1-1-1*|||*9---------------|
G  :3-3-3-3-3-3-3-3-3-3-3-3-3-3-3-3 ||| 7-------2-------|
D  :------------------------------- ||| --------0-------|

D  :------------------------------- 1|| ----------------|
A  :------------------------------- ||| ----------------|
F  :0-0-0-0-0-0-0-0-0-0-0-0-0-0-0-0*|||*9---------------|
C  :1-1-1-1-1-1-1-1-1-1-1-1-1-1-1-1*|||*----------------|
G  :3-3-3-3-3-3-3-3-3-3-3-3-3-3-3-3 ||| 7-------2-------|
D  :------------------------------- ||| --------0-------|

============================================================================

D  :-----------------------------------------------|
A  :-----------------------------------------------|
F  :-4--4--4--4--4--4--4--4--4--4--4--4--4--4--4--4|
C  :-5--5--5--5--5--5--5--5--5--5--5--5--5--5--5--5|
G  :-7--7--7--7--7--7--7--7--7--7--7--7--7--7--7--7|
D  :-----------------------------------------------|

D  :-----------------------------------------------|
A  :-----------------------------------------------|
F  :12-12-12-12-12-12-12-12-12-12-12-12-12-12-12-12|
C  :-----------------------------------------------|
G  :10-10-10-10-10-10-10-10-10-10-10-10-10-10-10-10|
D  :-----------------------------------------------|

============================================================================

D  :-----------------------------------------------|
A  :-7---------------------------------------------|
F  :-8---------------------------------------------|
C  :-8---------------------------------------------|
G  :-6-----------------------2---------------------|
D  :-------------------------0---------------------|

D  :-----------------------------------------------|
A  :-----------------------------------------------|
F  :11-11-11-11-11-11-11-11-12-12-12-12-11-11-11-11|
C  :-----------------------------------------------|
G  :-9--9--9--9--9--9--9--9-10-10-10-10--9--9--9--9|
D  :-----------------------------------------------|

============================================================================

D  :------------------------------- 3|----------------|----------------|
A  :------------------------------- ||----------------|----------------|
F  :0-0-0-0-0-0-0-0-0-0-0-0-0-0-0-0*||----------------|----------------|
C  :1-1-1-1-1-1-1-1-1-1-1-1-1-1-1-1*||----------------|----------------|
G  :3-3-3-3-3-3-3-3-3-3-3-3-3-3-3-3 ||----------------|----------------|
D  :------------------------------- ||----------------|----------------|

D  :------------------------------- 3|----------------|----------------|
A  :------------------------------- ||----------------|----------------|
F  :8-8-8-8-8-8-8-8-8-8-8-8-8-8-8-8*||----------------|----------------|
C  :-------------------------------*||----------------|----------------|
G  :6-6-6-6-6-6-6-6-6-6-6-6-6-6-6-6 ||----------------|----------------|
D  :------------------------------- ||----------------|----------------|

============================================================================

D  :----------------|----------------|| -----------------------------------|
A  :----------------|----------------|| -----------------------------------|
F  :----------------|----------------||*-----------------------------------|
C  :----------------|----------------||*--------9-9-9-9-8-8-8-8------------|
G  :----------------|----------------|| 7-7-7-7-----------------10-10-10-10|
D  :----------------|----------------|| -----------------------------------|

D  :----------------|----------------|| -----------------------------------|
A  :----------------|----------------|| -----------------------------------|
F  :----------------|----------------||*-----------------------------------|
C  :----------------|----------------||*5-5-5-5-5-5-5-5-5-5-5-5--5--5--5--5|
G  :----------------|----------------|| 7-7-7-7-7-7-7-7-7-7-7-7--7--7--7--7|
D  :----------------|----------------|| -----------------------------------|

============================================================================

D  :-----------------------------------|-----------------------------------|
A  :-----------------------------------|-----------------------------------|
F  :-----------------------------------|-----------------------------------|
C  :----------------------------9-9-9-9|8-8-8-8----------------------------|
G  :10-10-10-10-9-9-9-9-6-6-6-6--------|--------9-9-9-9-9-9-9-9-10-10-10-10|
D  :-----------------------------------|-----------------------------------|

D  :-----------------------------------|-----------------------------------|
A  :-----------------------------------|-----------------------------------|
F  :-----------------------------------|-----------------------------------|
C  :-5--5--5--5-5-5-5-5-5-4-4-4-4-4-4-4|4-4-4-4-4-4-4-4-4-4-4-4--4--4--4--4|
G  :-7--7--7--7-7-7-7-7-7-6-6-6-6-6-6-6|6-6-6-6-6-6-6-6-6-6-6-6--6--6--6--6|
D  :-----------------------------------|-----------------------------------|

============================================================================

D  :-----------------------------------|-----------------------------------|
A  :-----------------------------------|-----------------------------------|
F  :-----------------------------------|-----------------------------------|
C  :--------9-9-9-9-8-8-8-8------------|-----------------------------------|
G  :7-7-7-7-----------------10-10-10-10|10-10-10-10-9-9-9-9---------6-6-6-6|
D  :-----------------------------------|--------------------8-8-8-8--------|

D  :-----------------------------------|-----------------------------------|
A  :-----------------------------------|-----------------------------------|
F  :-----------------------------------|-----------------------------------|
C  :5-5-5-5-5-5-5-5-5-5-5-5--5--5--5--5|-5--5--5--5-5-5-5-5----------------|
G  :7-7-7-7-7-7-7-7-7-7-7-7--7--7--7--7|-7--7--7--7-7-7-7-7-6-6-6-6-6-6-6-6|
D  :-----------------------------------|--------------------8-8-8-8-8-8-8-8|

============================================================================

D  :--------------------------------------- 2|
A  :--------------------------------------- ||
F  :---------------------------------------*||
C  :---------------------------------------*||
G  :7-7-7-7-10-10-10-10-10-10-10-10-9-9-9-9 ||
D  :--------------------------------------- ||

D  :--------------------------------------- 2|
A  :--------------------------------------- ||
F  :---------------------------------------*||
C  :---------------------------------------*||
G  :6-6-6-6-10-10-10-10-10-10-10-10-9-9-9-9 ||
D  :8-8-8-8--8--8--8--8--8--8--8--8-8-8-8-8 ||

============================================================================

D  :-----------------------------------|-----------------------------------|
A  :-----------------------------------|-----------------------------------|
F  :-----------------------------------|-----------------------------------|
C  :--------9-9-9-9-8-8-8-8------------|----------------------------9-9-9-9|
G  :7-7-7-7-----------------10-10-10-10|10-10-10-10-9-9-9-9-6-6-6-6--------|
D  :-----------------------------------|-----------------------------------|

D  :-----------------------------------|-----------------------------------|
A  :-----------------------------------|-----------------------------------|
F  :-----------------------------------|-----------------------------------|
C  :5-5-5-5-5-5-5-5-5-5-5-5--5--5--5--5|-5--5--5--5-5-5-5-5-5-4-4-4-4-4-4-4|
G  :7-7-7-7-7-7-7-7-7-7-7-7--7--7--7--7|-7--7--7--7-7-7-7-7-7-6-6-6-6-6-6-6|
D  :-----------------------------------|-----------------------------------|

============================================================================

D  :-----------------------------------|-----------------------------------|
A  :-----------------------------------|-----------------------------------|
F  :-----------------------------------|-----------------------------------|
C  :8-8-8-8----------------------------|--------9-9-9-9-8-8-8-8------------|
G  :--------9-9-9-9-9-9-9-9-10-10-10-10|7-7-7-7-----------------10-10-10-10|
D  :-----------------------------------|-----------------------------------|

D  :-----------------------------------|-----------------------------------|
A  :-----------------------------------|-----------------------------------|
F  :-----------------------------------|-----------------------------------|
C  :4-4-4-4-4-4-4-4-4-4-4-4--4--4--4--4|5-5-5-5-5-5-5-5-5-5-5-5--5--5--5--5|
G  :6-6-6-6-6-6-6-6-6-6-6-6--6--6--6--6|7-7-7-7-7-7-7-7-7-7-7-7--7--7--7--7|
D  :-----------------------------------|-----------------------------------|

============================================================================

D  :-----------------------------------|-----------------------------------|
A  :-----------------------------------|-----------------------------------|
F  :-----------------------------------|-----------------------------------|
C  :-----------------------------------|-----------------------------------|
G  :10-10-10-10-9-9-9-9---------6-6-6-6|7-7-7-7-9-9-9-9-10-10-10-10-7-7-7-7|
D  :--------------------8-8-8-8--------|-----------------------------------|

D  :-----------------------------------|-----------------------------------|
A  :-----------------------------------|-----------------------------------|
F  :-----------------------------------|-----------------------------------|
C  :-5--5--5--5-5-5-5-5----------------|-----------------------------------|
G  :-7--7--7--7-7-7-7-7---------6-6-6-6|7-7-7-7-9-9-9-9-10-10-10-10-7-7-7-7|
D  :--------------------8-8-8-8--------|-----------------------------------|

============================================================================

D  :------------------------|
A  :----------------8-------|
F  :----------------9-------|
C  :----------------9-------|
G  :9-9-9-9-6-6-6-6-7-------|
D  :------------------------|

D  :------------------------|
A  :----------------8-------|
F  :----------------9-------|
C  :----------------9-------|
G  :9-9-9-9-6-6-6-6-7-------|
D  :------------------------|
Добавлено: 28.10.2013
Другие материалы по этой песне:
  • Аккорды и текст

Страница создана 28.10.2013
http://primanota.ru/abazagorath/the-antigod-chords.htm
Привет, Гость.
Предлагаем пройти революционный курс по гитаре.
Подарок от PrimaNota.Ru, забирай!