PrimaNota.ru - самый крупный в мире бесплатный архив песенных текстов, аккордов, табулатур и нот


Abary Angel - Our Last Scene - таба, видео

Регистрация Запомнить меня
Войти через:  Facebook Google Twitter Vk Yandex Mail.ru

Abary Angel - Our Last Scene - таба, видео

Печатать
Просмотров: 142
-------------------------------------------------------------------------------
OUR LAST SCENE - Brandon Lam(ABARYANGEL)
-------------------------------------------------------------------------------
Tabbed by: Brandon Lam (ABARYANGEL)
E-mail: brandonlam1998

Tuning:E STANDARD

RIFF 1:
         D                 A E*
e|-0---0-3-0---0---------0-0-0-|
B|---0---2---0-----------3-3-0-|
G|-------3-------3p0---3---3-1-|
D|-------0-----------3-----3-2-|
A|-------------------------0-2-|
E|---------------------------0-|

     D
Just close your eyes
Am
and imagine blue skies
    E
are all that remain.
D
Cuz sometimes,
    Am
sometimes crazy thoughts
E
are all that keep us sane
D
I know it's not
    Am
the perfect method,
E*
but it's less than hopeless

(REPEAT RIFF 1)

D
Just close your eyes.
Am
count to infinity and fifty and realize
E
that you've skipped a few years of your life
    D              Am
and getting old
E
clogs your fears and strife
D
but you don't need to worry,
Am
cuz you're only seventeen
E*
and flawless

(REPEAT RIFF 1)

RIFF 2:
           E*
e|---------0-|
B|---------0-|
G|-0-------1-|
D|---0-----2-|
A|-----0h2-2-|
E|---------0-|

     D
Open your eyes
    Am
and all comfort of make belief
E
vanishes before them,
D                            
And all you can think of,
Am.     E
all you can think of was when,
D
when I wasn't there,
Am     
but now I'm always here for you.
E
I'm always there.

(REPEAT RIFF 2)

        And

CHORUS:
D
It's not fair
Am
to judge me off
E                         D
the things that I've done,
Am                   E
the hearts that I've won
D
and broken.
Am
And if these words go unspoken,
E*
It's only cuz I'm nervous.

(REPEAT RIFF 2)

D
Wave goodbye
Am 
and watch him fade away
E
like they do in the pictures.
D
Cuz all life is is a soap opera
Am
Made for the heavens and
E.                          D
we're all that it features,

Am
But there's one flaw in the script
E
that the director needs to fix, cuz

(REPEAT CHORUS)

(REPEAT RIFF 1)

RIFF 3:

e|---------------------------|
B|---------------------------|
G|-0-------------------------|
D|---0----------3-2/3\2-3\2p0|
A|-----0h2-2~/3--------------|
E|---------------------------|



************************************
| *   let ring
| /   slide up
| \   slide down
| h   hammer-on
| p   pull-off
| ~   vibrato
| +   harmonic
| x   Mute note
| b   Bend
| pb  Pre-bend
| br  Bend release
| pbr Pre-bend release
| brb Bend release bend

************************************
Добавлено: 14.12.2015
Другие материалы по этой песне:
  • Аккорды и текст

Страница создана 14.12.2015
http://primanota.ru/abary-angel/our-last-scene-chords.htm
Привет, Гость.
Предлагаем пройти революционный курс по гитаре.
Подарок от PrimaNota.Ru, забирай!