PrimaNota.ru - самый крупный в мире бесплатный архив песенных текстов, аккордов, табулатур и нот


Abarax - Sermons And Lies - таба, видео

Регистрация Запомнить меня
Войти через:  Facebook Google Twitter Vk Yandex Mail.ru

Abarax - Sermons And Lies - таба, видео

Печатать
Просмотров: 121
                                          Artist - Abarax
                                         *****************
                                       Song - Sermons & Lies
                                      ***********************
                                         Album - Blue Room
                                        *******************


SECTION 1    HEAVY CHORDS
**********     A                     E             D            C
[----------------------|---------------|-----------------------------]
[-13-12-10------s------|-13-12-10------|--s-----p---------s------s---]
[----------12-12\14--9-|----------12-9-|-7\9--10-9-------7\9----7\9--]
[----------------------|---------------|-----------12-10-----10------]
[----------------------|---------------|-----------------------------]
[----------------------|---------------|-----------------------------]

                           A         E
[---------------|----------------------|-----------------]
[------------10-|-13-12-10------s------|-13-12-10------s-]
[--------7-9----|----------12-12\14--9-|----------12-9-\-]
[-7-9-10--------|----------------------|-----------------]
[---------------|----------------------|-----------------]
[---------------|----------------------|-----------------]

            D              G
[-------------------------------]
[--s-----p---------s------s---s-]
[-7\9--10-9-------7\9--10-\7--\-]
[-----------12-10---------------]
[-------------------------------]
[-------------------------------]


1ST VERSE
**********
E       
You say it's summertime, but still it rains                 s
C                                                          C\D
you say that the sun will shine, but the cold days remain
E
oh, when I look back now, it's always been the same         s
G                                                          G\A
you say it's summertime, but still it rain


CHORUS
*******
    E
No, I won't listen anymore    s
    C                        C\D
No, I won't listen anymore
    E
No, I won't listen anymore
    G                                    D
to all your sermons and all your lies no more

 (play through chorus)
[-----------------s---|-----------------s-----------------------]
[----7-8-10-8-7-8-\-7-|----7-8-10-8-7-8-\-7--just --------------]
[--9------------------|--9---------------------keep-------------]
[---------------------|--------------------------repeating------]
[---------------------|-----------------------------this-till---]
[---------------------|---------------------------------change--]


GO BACK TO 
SECTION 1
**********

02:05
VERSE 2
********
E
You are pretending the truth in your very own way            s
C                                                           C\D
all your unimportant words, just everything you say
E
oh, when I look back now, it's always been the same          s
G                                                           G\A
you were always pretending the truth in your very own way


02:35
GO BACK TO
CHORUS
*******


03:04
GO BACK TO 
SECTION 1
**********


GUITAR SOLOS             
*************  A                     E
 Guitar 1                            
[---------------s------|-----------br---|---h--p---------]
[-13-12----12-12\13----|-12-13-15-15-12-|-12-13-12----12-]
[-------14----------14-|----------------|----------14----]
[----------------------|----------------|----------------]
[----------------------|----------------|----------------]
[----------------------|----------------|----------------]
|                                                        |
|Guitar 2                                                |
[--------------------------------------------------------]
[-----------------------------------s--------------------]
[----------------------------------2\9-------------------]
[--------------------------------------------------------]
[--------------------------------------------------------]
[--------------------------------------------------------]
  
    D                    C                 A 
 Guitar 1
[---p----------------s------|-------------------h--p------]
[-13-12------12--13--\17-17-|-13-12-13-15-13-12--13-12----]
[--------14-----------------|--------------------------14-]
[---------------------------|-----------------------------]
[---------------------------|-----------------------------]
[---------------------------|-----------------------------]
|                                                         |
|Guitar 2                                                 |
[---------------------------------------------------------]
[---------------------------------------------------------]
[--7------------------------------------------------------]
[---------------------------------------------------------]
[---------------------------------------------------------]
[---------------------------------------------------------]

           E          D                                G
 Guitar 1
[-----------------|---h--p-------------p-------------b-----]
[-12-13-15-12--12-|-12-13-12----12-|-13-12----12-13-15--15-]
[-----------------|----------14------------14--------------]
[-----------------|----------------------------------------]
[-----------------|----------------------------------------]
[-----------------|----------------------------------------]



04:07  
[--5--|--5----|--5------|--5------]
[--5--|--5----|--5------|--5------]
[--6--|--5h6--|--5-h-6--|--5-h-6--]
[--7--|--5h7--|--5-h-7--|--5-h-7--]
[--7--|--5h7--|--5-h-7--|--5-h-7--]
[--5--|--5----|--5------|--5------]



04:25
[---------------|---------------------|-----------|-------------]
[---------------|--h-p----------------|-----------|-------------]
[--s--5---5-7-4-|-4-5-4--s------------|-----------|--s--5-7-5-4-]
[-5\7---7-------|-------5\7--------h--|--s--5-7-7-|-5\7---------]
[---------------|-----------7-5-3-2-3-|-3\7-------|-------------]
[---------------|---------------------|-----------|-------------]

                                   PH
[-----------------|------------------|--------------------------]
[--p--------------|------------------|---------b--rb---------s--]
[-5-4--s----------|----------------5-|--s--5-7-7--7--5-4-5-7-\9-]
[-----5\7---------|--s-5-7--s--5-7---|-5\7----------------------]
[---------7-5-3-2-|-5\7----5\7-------|--------------------------]
[-----------------|------------------|--------------------------]


[------------------|-----------------------------------------------]
[---------b--------|----p----------------------------------------b-]
[--s--5-7-7--5-7-4-|-4-5-4-----s---------------------------4-5-7-7-]
[-5\7--------------|-------5--7\5-7-----------------s--5-7---------]
[------------------|----------------7-5-3-2--3-2---5\7-------------]
[------------------|-----------------------------------------------]

     hold bend                       fast  hold bend
[-------------------|---p-------------br---b-15--rb-----------------]
[--b---b---b--13-12-|-13-12----12-13-15---15----15--12-13-12-13-----]
[-12--12--12--------|-------14-----------------------------------14-]
[-------------------|-----------------------------------------------]
[-------------------|-----------------------------------------------]
[-------------------|-----------------------------------------------]


[-------------|---h--p---------|-----------b-|----------]
[----12-13-12-|-12-13-12-------|----12-13-15-|-12-13-15-]
[-14----------|----------14-12-|-14----------|----------]
[-------------|----------------|-------------|----------]
[-------------|----------------|-------------|----------]
[-------------|----------------|-------------|----------]


05:22
 Guitar 1
[-20--19--17--15----|----------------------------]
[----------------17-|-------------17--17---------]
[-------------------|-17--16--17-----------------]
[-------------------|----------------------------]
[-------------------|----------------------------]
[-------------------|----------------------------]
|                                                |
|Guitar 2                                        |
[-------h--p-------|-------------h-------b-15-br-]
[-13--12-13-12-----|-13-12-----12-13-15-15---15--]
[---------------14-|-------14--------------------]
[-play this till---|-----------------------------]
[--you hear the----|-----------------------------]
[----change--------|-----------------------------]



 Guitar 1
[-20--19--17--15----|-------------------------------]
[----------------17-|--------------b----------------]
[-------------------|-19--17--19--19--16--17--19----]
[-------------------|-------------------------------]
[-------------------|-------------------------------]
[-------------------|-------------------------------]
|                                                   |
|Guitar 2                                           |
[------h--p------------|---p-------------br---------]
[-13-12-13-12-------12-|-13-12----12-13-15-12-13-15-]
[-------------14-12----|-------14-------------------]
[----------------------|----------------------------]
[----------------------|----------------------------]
[----------------------|----------------------------]



 Guitar 1
[-20--19--17--15----|-15--17--20--20--19--20---20-]
[----------------17-|-----------------------------]
[-------------------|-----------------------------]
[-------------------|-----------------------------]
[-------------------|-----------------------------]
[-------------------|-----------------------------]
|                                                 |
|Guitar 2                                         |
[----------------------|-------------b--15--------]
[----12--13-----12--13-|----12--13--15-----15-----]
[-14--------14---------|-14-----------------------]
[-play this till-------|--------------------------]
[--you hear the--------|--------------------------]
[----change------------|--------------------------]



 Guitar 1                      b
[-20--19--17--15----|-15--17--19--20---19--20--19--------------------]
[----------------17-|------------------------------------------------]
[-------------------|------------------------------------------------]
[-------------------|------------------------------------------------]
[-------------------|------------------------------------------------]
[-------------------|------------------------------------------------]
|                                                                    |
|Guitar 2                                                            |
[-------------|-------|----------------------|-----------------------]
[--p----------|-------|---------b-------p----|-----------------------]
[-5-4---4-----|-------|--s--5-7-7--5-4-5-4---|-4--s------------------]
[-----5---7-5-|-5-7---|-5\7----------------5-|---5\7--s---s----------]
[-------------|-----7-|----------------------|-------5\7-3\5-3-2-----]
[-------------|-------|----------------------|-------------------3-5-]



06:05
Mellow Guitar
*************
[-------|---------|---------|-hold it.....-------|-------------------]
[-------|---------|---p-----|--b-----8--rb----b--|--rb-----h-p-------]
[---h---|----5-4--|--5-4----|--7---------7--5-7--|--7-5-4---5-4---4--]
[--5-7--|--7------|------7--|--------------------|--------------7----]
[-------|---------|---------|--------------------|-------------------]
[-------|---------|---------|--------------------|-------------------]


[---------|---------------|----------------------------------|---------]
[---p-----|--b----h-p-s---|---h---h---h-br---------h-p-------|---p-----]
[--5-4----|--7-7-5-7-5\4--|--5-7-5-7-5-7--5---5-4---5-4---4--|--5-4----]
[------7--|---------------|-----------------7-----------7----|------7--]
[---------|---------------|----------------------------------|---------]
[---------|---------------|----------------------------------|---------]


[---------|---------b---rb----br-------|------------]
[---b-----|--10-12-12--12-10-12-10-12--|--13-12-10--]
[--12-12--|----------------------------|------------]
[---------|----------------------------|------------]
[---------|----------------------------|------------]
[---------|----------------------------|------------]


3rd VERSE
**********
E
Now we've sent you to hell, to where you belong                          s
C                                                                       C\D
down to the kingdom of fire that burns on and on
E
face to face with the devil and it's deamons until you have learned      s    
G                                                                       G\A
there's something that money can't buy that money can't buy



GO BACK TO
CHORUS
*******


LAST SOLOS
***********
 Guitar 1
[------h--p------------|-------------------]
[-13-12-13-12----------|-------------------]
[-------------14-12-9--|-------------------]
[----------------------|-12-10-9---10-9-10-]
[----------------------|-------------------]
[----------------------|-------------------]
|                                          |
|Guitar 2                                  |
|      h  p                                |
[-20-19-20-19-17-15----|-------------------]
[-------------------17-|-15---15--17-15-17-]
[----------------------|----17-------------]
[----------------------|-------------------]
[----------------------|-------------------]
[----------------------|-------------------]



 Guitar 1
[------h--p------------|-------------------------------]
[-13-12-13-12--------b-|-rb----------------------------]
[-------------14-12-14-|-14-12-10-9----9------h--p-----]
[----------------------|------------12---10--9-10-9----]
[----------------------|----------------------------12-]
[----------------------|-------------------------------]
|                                                      |
|Guitar 2                                              |
|      h  p          b    rb                           |
[-20-19-20-19-17-15-17-|-17-15-------------------------]
[----------------------|-------18-17----15--------15---]
[----------------------|-------------17-----16-17------]
[----------------------|-------------------------------]
[----------------------|-------------------------------]
[----------------------|-------------------------------]



 Guitar 1
[------h--p------------|-----------------------]
[-13-12-13-12--------b-|-----------------------]
[-------------14-12-14-|-12-10-9---p---------9-]
[----------------------|---------10-9-10--12---]
[----------------------|-----------------------]
[----------------------|-----------------------]
|                                              |
|Guitar 2                                      |
|      h  p                                    |
[-20-19-20-19-17-15----|-----------------------]
[-------------------17-|-15---15--17-15-17-----]
[----------------------|----17-----------------]
[----------------------|-----------------------]
[----------------------|-----------------------]
[----------------------|-----------------------]



 Guitar 1
[------h--p-----------------------b---------------s--]
[-13-12-13-12--------b--12-13-15-15--15-13-12-----\--]
[-------------14-12-14-------------------------------]
[----------------------------------------------------]
[----------------------------------------------------]
[----------------------------------------------------]
|                                                    |
|Guitar 2                                            |
|      h  p          b    b            b          s  |
[-20-19-20-19-17-15-17-|-17--19-20-22-22-22-20-19-\--]
[----------------------|-----------------------------]
[----------------------|-----------------------------]
[----------------------|-----------------------------]
[----------------------|-----------------------------]
[----------------------|-----------------------------]



Heavy Chords
A    E    D     C
A    E    D     G
A
Добавлено: 20.07.2013
Другие материалы по этой песне:
  • Аккорды и текст

Страница создана 20.07.2013
http://primanota.ru/abarax/sermons-and-lies-chords.htm
Привет, Гость.
Предлагаем пройти революционный курс по гитаре.
Подарок от PrimaNota.Ru, забирай!