PrimaNota.ru - самый крупный в мире бесплатный архив песенных текстов, аккордов, табулатур и нот


Abarax - Red Roses And Bullets - таба, видео

Регистрация Запомнить меня
Войти через:  Facebook Google Twitter Vk Yandex Mail.ru

Abarax - Red Roses And Bullets - таба, видео

Печатать
Просмотров: 122
BAND - ABARAX
**************
SONG - RED ROSES AND BULLETS
***************************
FROM - BLUE ROOM
*****************

 s = Slide
 b = Bend
 h = Hammer On
 p = Pull off
PH = Pinch Harmonic
PB = Pinch Bend
rb = Reverse Bend



SECTION 1
1ST VERSE    DO THIS PICKING THROUGH THE VERSES
GUITAR 1
  C                  Asus2              F                  G
[---------0--------|---------0--------|---------1--------|---------3-------]
[-----------1------|-----------0------|-----------1------|-----------3-----]
[-----0-------0----|-----2-------2----|-----2-------2----|-----4-------4---]
[---2---2-------2--|---2---2-------2--|---3---3-------3--|---5---5-------5-]
[-3----------------|-0----------------|------------------|-----------------]
[------------------|------------------|-1----------------|-3---------------]
|                                                                          |
|GUITAR 2 SOLO                                                             |
[-0-----------s----------------------------------------------------------s-]
[-1---------5-\-12-13-13-----------10-13---------------15-13-12--------12\5]
[-0------------------------------------------------------------------------]
[-2------------------------------------------------------------------------]
[-3------------------------------------------------------------------------]
[-3------------------------------------------------------------------------]


GUITAR 1
  C                  Asus2              F                  G
[---------0--------|---------0--------|---------1--------|---------3-------]
[-----------1------|-----------0------|-----------1------|-----------3-----]
[-----0-------0----|-----2-------2----|-----2-------2----|-----4-------4---]
[---2---2-------2--|---2---2-------2--|---3---3-------3--|---5---5-------5-]
[-3----------------|-0----------------|------------------|-----------------]
[------------------|------------------|-1----------------|-3---------------]
|                                                                          |
|GUITAR 2 SOLO                                                             |
[------------s-----------------------s------------s------------------------]
[----------5-\-10--12--13-12-10---10-\-5-6-------6\10-8-3-----------s----s-]
[------------------------------------------------------------------9\5--7\4]
[--------------------------------------------------------------------------]
[--------------------------------------------------------------------------]
[--------------------------------------------------------------------------]

Verse 1
********
          C                   Asus2
When you dream of a way - You find the words to say
          F                      G
when you seem to enjoy all your feelings annoy
        C                              Asus2
like a thorn tears your skin - and the pain is within
        F                     G
like a shot in the dark of a lonely left park

   G
[--3--]      
[--3--]     
[--4--]   
[--5--]     
[--5--]
[--3--]


Repeat Verse 1
***************


SECTION 2
DISTORTED GUITAR
    G  F# F    F    F  F# G      G  F# F    F    F  F# G
[---3--2--1----1----1--2--3--|---3--2--1----1----1--2--3--]
[---3--2--1----1----1--2--3--|---3--2--1----1----1--2--3--]
[---4--3--2----2----2--3--4--|---4--3--2----2----2--3--4--]
[---5--4--3----3----3--4--5--|---5--4--3----3----3--4--5--]
[---5--4--3----3----3--4--5--|---5--4--3----3----3--4--5--]
[---3--2--1----1----1--2--3--|---3--2--1----1----1--2--3--]


CHORUS WORDS - Red Roses And Bullets
   A     F  F     A     G     A     F     C     G
[--5--|--1--1--|--5--|--3--|--5--|--1--|--0--|--3--]
[--5--|--1--1--|--5--|--3--|--5--|--1--|--1--|--3--]
[--6--|--2--2--|--6--|--4--|--6--|--2--|--0--|--4--]
[--7--|--3--3--|--7--|--5--|--7--|--3--|--2--|--5--]
[--7--|--3--3--|--7--|--5--|--7--|--3--|--3--|--5--]
[--5--|--1--1--|--5--|--3--|--5--|--1--|--3--|--3--]

Chorus
*******
A              F        A               G
  Red roses and bullets   do the same deed
A              F        C               G
  Red roses and bullets   both make you bleed


CHORDS FOR SOLO - A F A G
1ST SOLO          A F C  G X2

[---b---b---------|------------------------------|-------------]
[--15--15--15-15--|-------------------p----------|-------------]
[-----------------|--5-7-9---7-5--4--5-4-----s---|-------------]
[-----------------|-------------------------5\7--|--0-3---0-2--]
[-----------------|------------------------------|-------------]
[-----------------|------------------------------|-------------]


[-----------------------|--------------------------]
[-----------------------|---p----------------------]
[-----------5--5-5---4--|--5-4---4----s--5---------]
[--s---5-7---------7----|------5----5-\7-----------]
[--\-7------------------|--------------------------]
[-----------------------|-------------------8-7-5--]


[---------------------h--|---s-----------|--b--15--b----b---p--h------h---s]
[--------------------5-6-|-6-\--10-12-13-|-15-----15---15-15-13-15--13-15-\]
[------------------5-----|---------------|---------------------------------]
[-----------s--5-7-------|---------------|---------------------------------]
[--s---3-5-5\7-----------|---------------|---------------------------------]
[-3\5--------------------|---------------|---------------------------------]


[-------------------]
[-------------------]
[--5-7-5------------]
[--------7-5--------]
[------------7-5-3--]
[-------------------]


REPEAT SECTION 1
Verse 2
********
           C                         Asus2
Can it be like we pray - can it stay just this way
         F                            G
when you hope for an answer they look up and they say
        C                               Asus2
like a thorn tears your  skin - and the pain is within
        F                           G
like a shot in the dark where it's lonely and dark
  C                         Asus2
wonderful and heart-healing you have been to me
  F                                     G
won't you say that you love me, so the world then can see



REPEAT SECTION 2 - DISTORTED GUITAR
Chorus
*******


CHORDS FOR SOLO - A F A G
2ND SOLO          A F C  G  X2
[-----------|-----------------------|---------------|--h-p------------]
[-----------|--------------bPH------|---------5-6-5-|-5-6-5---5-6-5---]
[-s---5---s-|-s--5------5--7-7-5----|---s--5--------|-------7-------7-]
[-\-7---7-\-|-\7---7--7-----------7-|---\7----------|-----------------]
[-----------|-----------------------|---------------|-----------------]
[-----------|-----------------------|---------------|-----------------]


[---------|-------------------|----------------------|------------------]
[--h-p-s--|--p----------------|----------------------|------------5-6-5-]
[-5-7-5\4-|-5-4---4-----------|------------------5---|-------s--5-------]
[---------|-----5----5--------|-----------s--5-7---7-|-5-7--5\7---------]
[---------|-------------------|--s--3--5-5\7---------|------------------]
[---------|-------------8-7-5-|-3\5------------------|------------------]

04:10
[---s----------b-rp----brb-------|---------------------]
[--5\10-10-12-12---10-12--10-12--|--12-12-12-12-10-13--]
[--------------------------------|---------------------]
[--------------------------------|---------------------]
[--------------------------------|---------------------]
[--------------------------------|---------------------]


[----h--p--------------------------------------]
[--12-13-12----12-13-12---------------h--------]
[-----------14-------------12-12-14-12-14--14--]
[-----------------------14---------------------]
[----------------------------------------------]
[----------------------------------------------]

                                          b   b   rb
[-------------------------------12-15-12-15--15--15-12------12--p-------]
[---------------------12-13-15---------------------------15---15-13-15--]
[-----------------12----------------------------------------------------]
[--14----12-14-15-------------------------------------------------------]
[-----15----------------------------------------------------------------]
[-----------------------------------------------------------------------]


[-------------|--h-p--------------------------------------------|----------]
[-5-6-5---5-6-|-5-6-5---5---------------------------------------|----------]
[-------7-----|-------7---7--5-4-5-4----4-----------------------|----h--0-2]
[-------------|-----------------------5---5-2--2-0--------------|---0-2----]
[-------------|------------------------------------3-2-3--0---0-|-3--------]
[-------------|---------------------------------------------3---|----------]

               pinch
[---------------bend-----]
[----------------PB------]
[---s--5-5-----5-7--7-4--]
[--5\7-------7-----------]
[------------------------]
[------------------------]


Repeat Chorus Till End
***********************
fill in chorus with distorted chords
*************************************

05:08
[---b--b-rp----------h------h--p---------------|---------------------]
[--15-15---13-15---12-13--12-13-12--------s----|-----12-13-15-13-13--]
[----------------------------------14--12-\14--|--14-----------------]
[----------------------------------------------|---------------------]
[----------------------------------------------|---------------------]
[----------------------------------------------|---------------------]


[-------------------h------|----p--p-------------|------------|------------]
[--13-15-13-12-12-12-13-12-|--13-12-10------s----|-----12-13--|--12-13-13--]
[--------------------------|-----------12-12\14--|--14--------|------------]
[--------------------------|---------------------|------------|------------]
[--------------------------|---------------------|------------|------------]
[--------------------------|---------------------|------------|------------]


[---b----br------------15-13-12----------------------]
[--15---15-13-15-12--x----------15-13-12-------------]
[-------------------x--------------------14-13-12-12-]
[----------------------------------------------------]
[----------------------------------------------------]
[----------------------------------------------------]


[-----------------------------|---------b-----------]
[----h-------12-13--13-12-13--|--13-15-15-15-13-13--]
[--12-14--14------------------|---------------------]
[-----------------------------|---------------------]
[-----------------------------|---------------------]
[-----------------------------|---------------------]


[---------b-15--rb-----|--------------------------------------------------b]
[--13-15-15----15--12--|-12-13-12-----12-13-12---------------------12-13-15]
[----------------------|----------14-----------14----------h---------------]
[----------------------|---------------------------12-12-12-14-------------]
[----------------------|----------------------------------------14---------]
[----------------------|---------------------------------------------------]

Добавлено: 29.10.2013
Вам также может быть интересно:
Другие материалы по этой песне:
  • Аккорды и текст

Страница создана 29.10.2013
http://primanota.ru/abarax/red-roses-and-bullets-chords.htm
Привет, Гость.
Предлагаем пройти революционный курс по гитаре.
Подарок от PrimaNota.Ru, забирай!